  0
SECTION
  2
HEADER
  9
$ACADVER
  1
AC2.10
  0
ENDSEC
  0
SECTION
  2
TABLES
  0
TABLE
  2
LAYER
 70
     8
  0
LAYER
  2
0
 62
     7
 70
0
  6
CONTINUOUS
  0
LAYER
  2
1
 62
     1
 70
0
  6
CONTINUOUS
  0
LAYER
  2
2
 62
     2
 70
0
  6
CONTINUOUS
  0
LAYER
  2
3
 62
     3
 70
0
  6
CONTINUOUS
  0
LAYER
  2
4
 62
     4
 70
0
  6
CONTINUOUS
  0
LAYER
  2
5
 62
     5
 70
0
  6
CONTINUOUS
  0
LAYER
  2
6
 62
     6
 70
0
  6
CONTINUOUS
  0
LAYER
  2
7
 62
     7
 70
0
  6
CONTINUOUS
  0
ENDTAB
  0
TABLE
  2
STYLE
 70
     1
  0
STYLE
 70
     0
  2
STANDARD
  3
TXT
 40
0.00
 41
1.00
 42
1.00
 50
0.00
 71
     0
  0
ENDTAB
  0
ENDSEC
  0
SECTION
  2
BLOCKS
  0
BLOCK
  8
0
  2
EPAD
 70
0
 10
0.0
 20
0.0
  0
POLYLINE
  8
0
 66
1
 70
1
 40
0.5
 41
0.5
  0
VERTEX
  8
0
 10
-0.25
 20
0.0
 42
1.0
  0
VERTEX
  8
0
 10
0.25
 20
0.0
 42
1.0
  0
SEQEND
  8
0
  0
ENDBLK
  8
0
  0
BLOCK
  8
0
  2
RPAD
 70
0
 10
0.0
 20
0.0
  0
TRACE
  8
0
 10
-0.5
 20
-0.5
 11
-0.5
 21
0.5
 12
0.5
 22
-0.5
 13
0.5
 23
0.5
  0
ENDBLK
  8
0
  0
ENDSEC
0
SECTION
2
ENTITIES
0
POLYLINE
8
0
66
1
40
0.040000
41
0.040000
0
VERTEX
8
0
10
2.000000
20
-1.112000
0
VERTEX
8
0
10
2.300000
20
-1.112000
0
SEQEND
8
0
0
POLYLINE
8
0
66
1
40
0.040000
41
0.040000
0
VERTEX
8
0
10
-2.000000
20
-1.362000
0
VERTEX
8
0
10
-2.000000
20
-1.612000
0
SEQEND
8
0
0
POLYLINE
8
0
66
1
40
0.040000
41
0.040000
0
VERTEX
8
0
10
-0.800000
20
-1.512000
0
VERTEX
8
0
10
-0.800000
20
1.037000
0
SEQEND
8
0
0
POLYLINE
8
0
66
1
40
0.040000
41
0.040000
0
VERTEX
8
0
10
1.900000
20
-0.587000
0
VERTEX
8
0
10
2.400000
20
-0.587000
0
SEQEND
8
0
0
POLYLINE
8
0
66
1
40
0.040000
41
0.040000
0
VERTEX
8
0
10
0.500000
20
0.187000
0
VERTEX
8
0
10
0.500000
20
0.562000
0
SEQEND
8
0
0
POLYLINE
8
0
66
1
40
0.040000
41
0.040000
0
VERTEX
8
0
10
0.600000
20
0.037000
0
VERTEX
8
0
10
0.600000
20
0.662000
0
SEQEND
8
0
0
POLYLINE
8
0
66
1
40
0.040000
41
0.040000
0
VERTEX
8
0
10
0.025000
20
-0.137000
0
VERTEX
8
0
10
0.025000
20
-0.887000
0
SEQEND
8
0
0
POLYLINE
8
0
66
1
40
0.040000
41
0.040000
0
VERTEX
8
0
10
0.925000
20
-0.087000
0
VERTEX
8
0
10
1.300000
20
-0.087000
0
SEQEND
8
0
0
POLYLINE
8
0
66
1
40
0.040000
41
0.040000
0
VERTEX
8
0
10
1.100000
20
-0.387000
0
VERTEX
8
0
10
2.250000
20
-0.387000
0
SEQEND
8
0
0
POLYLINE
8
0
66
1
40
0.040000
41
0.040000
0
VERTEX
8
0
10
1.325000
20
0.537000
0
VERTEX
8
0
10
1.775000
20
0.537000
0
SEQEND
8
0
0
POLYLINE
8
0
66
1
40
0.040000
41
0.040000
0
VERTEX
8
0
10
1.425000
20
0.762000
0
VERTEX
8
0
10
1.900000
20
0.762000
0
SEQEND
8
0
0
POLYLINE
8
0
66
1
40
0.040000
41
0.040000
0
VERTEX
8
0
10
-1.900000
20
-1.362000
0
VERTEX
8
0
10
-1.700000
20
-1.362000
0
SEQEND
8
0
0
POLYLINE
8
0
66
1
40
0.040000
41
0.040000
0
VERTEX
8
0
10
0.250000
20
-1.637000
0
VERTEX
8
0
10
0.800000
20
-1.087000
0
SEQEND
8
0
0
POLYLINE
8
0
66
1
40
0.040000
41
0.040000
0
VERTEX
8
0
10
-2.375000
20
-1.712000
0
VERTEX
8
0
10
-2.375000
20
-1.437000
0
SEQEND
8
0
0
POLYLINE
8
0
66
1
40
0.040000
41
0.040000
0
VERTEX
8
0
10
-2.125000
20
-1.387000
0
VERTEX
8
0
10
-2.125000
20
-1.862000
0
SEQEND
8
0
0
POLYLINE
8
0
66
1
40
0.040000
41
0.040000
0
VERTEX
8
0
10
-2.650000
20
-1.112000
0
VERTEX
8
0
10
-1.950000
20
-1.112000
0
SEQEND
8
0
0
POLYLINE
8
0
66
1
40
0.040000
41
0.040000
0
VERTEX
8
0
10
-2.650000
20
1.862000
0
VERTEX
8
0
10
2.100000
20
1.862000
0
VERTEX
8
0
10
2.100000
20
1.862000
0
SEQEND
8
0
0
POLYLINE
8
0
66
1
40
0.040000
41
0.040000
0
VERTEX
8
0
10
1.900000
20
1.587000
0
VERTEX
8
0
10
2.400000
20
1.587000
0
SEQEND
8
0
0
POLYLINE
8
0
66
1
40
0.040000
41
0.040000
0
VERTEX
8
0
10
1.300000
20
-0.212000
0
VERTEX
8
0
10
1.775000
20
-0.212000
0
SEQEND
8
0
0
POLYLINE
8
0
66
1
40
0.020000
41
0.020000
0
VERTEX
8
0
10
-1.150000
20
1.482000
0
VERTEX
8
0
10
-0.250000
20
1.482000
0
SEQEND
8
0
0
POLYLINE
8
0
66
1
40
0.020000
41
0.020000
0
VERTEX
8
0
10
-1.250000
20
1.412000
0
VERTEX
8
0
10
-0.050000
20
1.412000
0
SEQEND
8
0
0
POLYLINE
8
0
66
1
40
0.040000
41
0.040000
0
VERTEX
8
0
10
-1.225000
20
1.937000
0
VERTEX
8
0
10
0.075000
20
1.937000
0
SEQEND
8
0
0
POLYLINE
8
0
66
1
40
0.020000
41
0.020000
0
VERTEX
8
0
10
-1.050000
20
1.552000
0
VERTEX
8
0
10
-0.150000
20
1.552000
0
SEQEND
8
0
0
POLYLINE
8
0
66
1
40
0.040000
41
0.040000
0
VERTEX
8
0
10
2.600000
20
-0.687000
0
VERTEX
8
0
10
2.600000
20
-0.787000
0
VERTEX
8
0
10
2.600000
20
-0.887000
0
VERTEX
8
0
10
2.600000
20
-0.987000
0
SEQEND
8
0
0
POLYLINE
8
0
66
1
40
0.040000
41
0.040000
0
VERTEX
8
0
10
2.600000
20
-0.587000
0
VERTEX
8
0
10
2.700000
20
-0.587000
0
VERTEX
8
0
10
2.700000
20
-1.087000
0
VERTEX
8
0
10
2.600000
20
-1.087000
0
SEQEND
8
0
0
POLYLINE
8
0
66
1
40
0.040000
41
0.040000
0
VERTEX
8
0
10
2.600000
20
-0.787000
0
VERTEX
8
0
10
2.375000
20
-0.787000
0
SEQEND
8
0
0
POLYLINE
8
0
66
1
40
0.040000
41
0.040000
0
VERTEX
8
0
10
2.375000
20
-0.887000
0
VERTEX
8
0
10
2.475000
20
-0.887000
0
VERTEX
8
0
10
2.475000
20
-1.087000
0
VERTEX
8
0
10
2.600000
20
-1.087000
0
SEQEND
8
0
0
POLYLINE
8
0
66
1
40
0.040000
41
0.040000
0
VERTEX
8
0
10
2.600000
20
0.487000
0
VERTEX
8
0
10
2.700000
20
0.487000
0
VERTEX
8
0
10
2.700000
20
-0.012000
0
VERTEX
8
0
10
2.600000
20
-0.012000
0
SEQEND
8
0
0
POLYLINE
8
0
66
1
40
0.040000
41
0.040000
0
VERTEX
8
0
10
2.600000
20
0.587000
0
VERTEX
8
0
10
2.500000
20
0.587000
0
SEQEND
8
0
0
POLYLINE
8
0
66
1
40
0.040000
41
0.040000
0
VERTEX
8
0
10
2.600000
20
0.287000
0
VERTEX
8
0
10
2.415000
20
0.287000
0
VERTEX
8
0
10
2.375000
20
0.287000
0
SEQEND
8
0
0
POLYLINE
8
0
66
1
40
0.040000
41
0.040000
0
VERTEX
8
0
10
2.375000
20
0.187000
0
VERTEX
8
0
10
2.475000
20
0.187000
0
VERTEX
8
0
10
2.475000
20
-0.012000
0
VERTEX
8
0
10
2.600000
20
-0.012000
0
SEQEND
8
0
0
POLYLINE
8
0
66
1
40
0.040000
41
0.040000
0
VERTEX
8
0
10
2.600000
20
0.387000
0
VERTEX
8
0
10
2.600000
20
0.287000
0
VERTEX
8
0
10
2.600000
20
0.187000
0
VERTEX
8
0
10
2.600000
20
0.087000
0
SEQEND
8
0
0
POLYLINE
8
0
66
1
40
0.040000
41
0.040000
0
VERTEX
8
0
10
2.600000
20
-0.487000
0
VERTEX
8
0
10
2.775000
20
-0.487000
0
VERTEX
8
0
10
2.775000
20
-1.187000
0
VERTEX
8
0
10
2.600000
20
-1.187000
0
SEQEND
8
0
0
POLYLINE
8
0
66
1
40
0.040000
41
0.040000
0
VERTEX
8
0
10
2.750000
20
-0.112000
0
VERTEX
8
0
10
2.775000
20
-0.112000
0
SEQEND
8
0
0
POLYLINE
8
0
66
1
40
0.040000
41
0.040000
0
VERTEX
8
0
10
2.600000
20
0.587000
0
VERTEX
8
0
10
2.775000
20
0.587000
0
VERTEX
8
0
10
2.775000
20
-0.112000
0
SEQEND
8
0
0
POLYLINE
8
0
66
1
40
0.040000
41
0.040000
0
VERTEX
8
0
10
2.750000
20
-0.112000
0
VERTEX
8
0
10
2.600000
20
-0.112000
0
SEQEND
8
0
0
POLYLINE
8
0
66
1
40
0.100000
41
0.100000
0
VERTEX
8
0
10
1.850000
20
-1.487000
0
VERTEX
8
0
10
1.950000
20
-1.487000
0
VERTEX
8
0
10
2.050000
20
-1.487000
0
SEQEND
8
0
0
POLYLINE
8
0
66
1
40
0.100000
41
0.100000
0
VERTEX
8
0
10
1.075000
20
-1.487000
0
VERTEX
8
0
10
0.975000
20
-1.487000
0
VERTEX
8
0
10
0.875000
20
-1.487000
0
SEQEND
8
0
0
POLYLINE
8
0
66
1
40
0.040000
41
0.040000
0
VERTEX
8
0
10
-0.400000
20
-1.437000
0
VERTEX
8
0
10
-0.550000
20
-1.437000
0
SEQEND
8
0
0
POLYLINE
8
0
66
1
40
0.040000
41
0.040000
0
VERTEX
8
0
10
2.375000
20
-0.987000
0
VERTEX
8
0
10
2.375000
20
-1.062000
0
VERTEX
8
0
10
2.325000
20
-1.112000
0
VERTEX
8
0
10
2.300000
20
-1.112000
0
SEQEND
8
0
0
POLYLINE
8
0
66
1
40
0.040000
41
0.040000
0
VERTEX
8
0
10
-0.910000
20
-1.012000
0
VERTEX
8
0
10
-0.950000
20
-1.012000
0
SEQEND
8
0
0
POLYLINE
8
0
66
1
40
0.040000
41
0.040000
0
VERTEX
8
0
10
-0.950000
20
1.637000
0
VERTEX
8
0
10
-0.950000
20
1.677000
0
VERTEX
8
0
10
-0.950000
20
1.737000
0
SEQEND
8
0
0
POLYLINE
8
0
66
1
40
0.040000
41
0.040000
0
VERTEX
8
0
10
-2.650000
20
1.737000
0
VERTEX
8
0
10
-2.650000
20
1.637000
0
SEQEND
8
0
0
POLYLINE
8
0
66
1
40
0.040000
41
0.040000
0
VERTEX
8
0
10
-2.850000
20
-0.462000
0
VERTEX
8
0
10
-2.850000
20
-0.362000
0
SEQEND
8
0
0
POLYLINE
8
0
66
1
40
0.040000
41
0.040000
0
VERTEX
8
0
10
-0.800000
20
-1.612000
0
VERTEX
8
0
10
-2.000000
20
-1.612000
0
SEQEND
8
0
0
POLYLINE
8
0
66
1
40
0.040000
41
0.040000
0
VERTEX
8
0
10
2.500000
20
0.762000
0
VERTEX
8
0
10
2.500000
20
0.587000
0
SEQEND
8
0
0
POLYLINE
8
0
66
1
40
0.040000
41
0.040000
0
VERTEX
8
0
10
2.400000
20
0.762000
0
VERTEX
8
0
10
2.400000
20
0.487000
0
SEQEND
8
0
0
POLYLINE
8
0
66
1
40
0.040000
41
0.040000
0
VERTEX
8
0
10
2.400000
20
-0.587000
0
VERTEX
8
0
10
2.400000
20
-0.747000
0
VERTEX
8
0
10
2.375000
20
-0.787000
0
SEQEND
8
0
0
POLYLINE
8
0
66
1
40
0.040000
41
0.040000
0
VERTEX
8
0
10
2.400000
20
0.487000
0
VERTEX
8
0
10
2.400000
20
0.327000
0
VERTEX
8
0
10
2.375000
20
0.287000
0
SEQEND
8
0
0
POLYLINE
8
0
66
1
40
0.040000
41
0.040000
0
VERTEX
8
0
10
1.900000
20
-0.587000
0
VERTEX
8
0
10
1.900000
20
0.512000
0
SEQEND
8
0
0
POLYLINE
8
0
66
1
40
0.040000
41
0.040000
0
VERTEX
8
0
10
-0.700000
20
-0.387000
0
VERTEX
8
0
10
-0.775000
20
-0.387000
0
VERTEX
8
0
10
-0.800000
20
-0.412000
0
VERTEX
8
0
10
-0.950000
20
-0.412000
0
SEQEND
8
0
0
POLYLINE
8
0
66
1
40
0.040000
41
0.040000
0
VERTEX
8
0
10
-0.700000
20
-0.487000
0
VERTEX
8
0
10
-0.775000
20
-0.487000
0
VERTEX
8
0
10
-0.800000
20
-0.512000
0
VERTEX
8
0
10
-0.950000
20
-0.512000
0
SEQEND
8
0
0
POLYLINE
8
0
66
1
40
0.040000
41
0.040000
0
VERTEX
8
0
10
-0.700000
20
-0.587000
0
VERTEX
8
0
10
-0.775000
20
-0.587000
0
VERTEX
8
0
10
-0.800000
20
-0.612000
0
VERTEX
8
0
10
-0.950000
20
-0.612000
0
SEQEND
8
0
0
POLYLINE
8
0
66
1
40
0.040000
41
0.040000
0
VERTEX
8
0
10
-0.700000
20
-0.687000
0
VERTEX
8
0
10
-0.775000
20
-0.687000
0
VERTEX
8
0
10
-0.800000
20
-0.712000
0
VERTEX
8
0
10
-0.950000
20
-0.712000
0
SEQEND
8
0
0
POLYLINE
8
0
66
1
40
0.040000
41
0.040000
0
VERTEX
8
0
10
-0.700000
20
-0.787000
0
VERTEX
8
0
10
-0.775000
20
-0.787000
0
VERTEX
8
0
10
-0.800000
20
-0.812000
0
VERTEX
8
0
10
-0.950000
20
-0.812000
0
SEQEND
8
0
0
POLYLINE
8
0
66
1
40
0.040000
41
0.040000
0
VERTEX
8
0
10
-0.700000
20
-0.887000
0
VERTEX
8
0
10
-0.775000
20
-0.887000
0
VERTEX
8
0
10
-0.800000
20
-0.912000
0
VERTEX
8
0
10
-0.950000
20
-0.912000
0
SEQEND
8
0
0
POLYLINE
8
0
66
1
40
0.040000
41
0.040000
0
VERTEX
8
0
10
-0.600000
20
-0.387000
0
VERTEX
8
0
10
-0.600000
20
-0.487000
0
VERTEX
8
0
10
-0.600000
20
-0.587000
0
VERTEX
8
0
10
-0.600000
20
-0.687000
0
VERTEX
8
0
10
-0.600000
20
-0.787000
0
VERTEX
8
0
10
-0.600000
20
-0.887000
0
SEQEND
8
0
0
POLYLINE
8
0
66
1
40
0.040000
41
0.040000
0
VERTEX
8
0
10
-0.500000
20
-0.387000
0
VERTEX
8
0
10
-0.500000
20
-0.487000
0
VERTEX
8
0
10
-0.500000
20
-0.547000
0
VERTEX
8
0
10
-0.500000
20
-0.587000
0
VERTEX
8
0
10
-0.500000
20
-0.627000
0
VERTEX
8
0
10
-0.500000
20
-0.687000
0
VERTEX
8
0
10
-0.500000
20
-0.787000
0
VERTEX
8
0
10
-0.500000
20
-0.887000
0
SEQEND
8
0
0
POLYLINE
8
0
66
1
40
0.040000
41
0.040000
0
VERTEX
8
0
10
-0.600000
20
-0.887000
0
VERTEX
8
0
10
-0.600000
20
-1.012000
0
VERTEX
8
0
10
-0.910000
20
-1.012000
0
SEQEND
8
0
0
POLYLINE
8
0
66
1
40
0.040000
41
0.040000
0
VERTEX
8
0
10
0.425000
20
1.037000
0
VERTEX
8
0
10
0.525000
20
1.037000
0
SEQEND
8
0
0
POLYLINE
8
0
66
1
40
0.040000
41
0.040000
0
VERTEX
8
0
10
0.625000
20
1.037000
0
VERTEX
8
0
10
0.585000
20
1.037000
0
VERTEX
8
0
10
0.525000
20
1.037000
0
SEQEND
8
0
0
POLYLINE
8
0
66
1
40
0.040000
41
0.040000
0
VERTEX
8
0
10
0.725000
20
1.037000
0
VERTEX
8
0
10
0.825000
20
1.037000
0
SEQEND
8
0
0
POLYLINE
8
0
66
1
40
0.040000
41
0.040000
0
VERTEX
8
0
10
1.025000
20
1.637000
0
VERTEX
8
0
10
1.025000
20
1.677000
0
SEQEND
8
0
0
POLYLINE
8
0
66
1
40
0.040000
41
0.040000
0
VERTEX
8
0
10
0.325000
20
1.487000
0
VERTEX
8
0
10
0.325000
20
1.527000
0
VERTEX
8
0
10
0.325000
20
1.637000
0
SEQEND
8
0
0
POLYLINE
8
0
66
1
40
0.040000
41
0.040000
0
VERTEX
8
0
10
0.425000
20
1.487000
0
VERTEX
8
0
10
0.425000
20
1.637000
0
SEQEND
8
0
0
POLYLINE
8
0
66
1
40
0.040000
41
0.040000
0
VERTEX
8
0
10
0.425000
20
1.487000
0
VERTEX
8
0
10
1.025000
20
1.487000
0
VERTEX
8
0
10
1.025000
20
1.637000
0
SEQEND
8
0
0
POLYLINE
8
0
66
1
40
0.040000
41
0.040000
0
VERTEX
8
0
10
-0.325000
20
0.637000
0
VERTEX
8
0
10
-0.950000
20
0.637000
0
SEQEND
8
0
0
POLYLINE
8
0
66
1
40
0.040000
41
0.040000
0
VERTEX
8
0
10
-0.225000
20
0.637000
0
VERTEX
8
0
10
-0.225000
20
0.562000
0
VERTEX
8
0
10
-0.250000
20
0.537000
0
VERTEX
8
0
10
-0.750000
20
0.537000
0
VERTEX
8
0
10
-0.850000
20
0.437000
0
VERTEX
8
0
10
-0.910000
20
0.437000
0
VERTEX
8
0
10
-0.950000
20
0.437000
0
SEQEND
8
0
0
POLYLINE
8
0
66
1
40
0.040000
41
0.040000
0
VERTEX
8
0
10
-0.125000
20
0.637000
0
VERTEX
8
0
10
-0.025000
20
0.637000
0
SEQEND
8
0
0
POLYLINE
8
0
66
1
40
0.040000
41
0.040000
0
VERTEX
8
0
10
0.075000
20
0.637000
0
VERTEX
8
0
10
0.175000
20
0.637000
0
VERTEX
8
0
10
0.275000
20
0.637000
0
SEQEND
8
0
0
POLYLINE
8
0
66
1
40
0.040000
41
0.040000
0
VERTEX
8
0
10
0.375000
20
0.637000
0
VERTEX
8
0
10
0.375000
20
0.587000
0
VERTEX
8
0
10
0.325000
20
0.537000
0
VERTEX
8
0
10
-0.150000
20
0.537000
0
VERTEX
8
0
10
-0.225000
20
0.462000
0
VERTEX
8
0
10
-0.725000
20
0.462000
0
VERTEX
8
0
10
-0.850000
20
0.337000
0
VERTEX
8
0
10
-0.950000
20
0.337000
0
SEQEND
8
0
0
POLYLINE
8
0
66
1
40
0.040000
41
0.040000
0
VERTEX
8
0
10
0.725000
20
0.487000
0
VERTEX
8
0
10
0.725000
20
0.637000
0
SEQEND
8
0
0
POLYLINE
8
0
66
1
40
0.040000
41
0.040000
0
VERTEX
8
0
10
0.825000
20
0.487000
0
VERTEX
8
0
10
0.825000
20
0.637000
0
SEQEND
8
0
0
POLYLINE
8
0
66
1
40
0.040000
41
0.040000
0
VERTEX
8
0
10
0.375000
20
0.187000
0
VERTEX
8
0
10
0.375000
20
0.037000
0
SEQEND
8
0
0
POLYLINE
8
0
66
1
40
0.040000
41
0.040000
0
VERTEX
8
0
10
0.275000
20
0.187000
0
VERTEX
8
0
10
0.275000
20
0.037000
0
SEQEND
8
0
0
POLYLINE
8
0
66
1
40
0.040000
41
0.040000
0
VERTEX
8
0
10
0.725000
20
0.037000
0
VERTEX
8
0
10
0.725000
20
0.112000
0
VERTEX
8
0
10
0.525000
20
0.312000
0
VERTEX
8
0
10
-0.075000
20
0.312000
0
VERTEX
8
0
10
-0.150000
20
0.237000
0
VERTEX
8
0
10
-0.650000
20
0.237000
0
VERTEX
8
0
10
-0.850000
20
0.037000
0
VERTEX
8
0
10
-0.910000
20
0.037000
0
VERTEX
8
0
10
-0.950000
20
0.037000
0
SEQEND
8
0
0
POLYLINE
8
0
66
1
40
0.040000
41
0.040000
0
VERTEX
8
0
10
0.825000
20
0.037000
0
VERTEX
8
0
10
0.925000
20
0.037000
0
VERTEX
8
0
10
1.025000
20
0.037000
0
SEQEND
8
0
0
POLYLINE
8
0
66
1
40
0.040000
41
0.040000
0
VERTEX
8
0
10
1.125000
20
0.037000
0
VERTEX
8
0
10
1.225000
20
0.037000
0
SEQEND
8
0
0
POLYLINE
8
0
66
1
40
0.040000
41
0.040000
0
VERTEX
8
0
10
0.375000
20
0.187000
0
VERTEX
8
0
10
0.500000
20
0.187000
0
SEQEND
8
0
0
POLYLINE
8
0
66
1
40
0.040000
41
0.040000
0
VERTEX
8
0
10
0.500000
20
0.562000
0
VERTEX
8
0
10
0.600000
20
0.562000
0
VERTEX
8
0
10
0.675000
20
0.487000
0
VERTEX
8
0
10
0.725000
20
0.487000
0
SEQEND
8
0
0
POLYLINE
8
0
66
1
40
0.040000
41
0.040000
0
VERTEX
8
0
10
0.275000
20
0.187000
0
VERTEX
8
0
10
0.275000
20
0.237000
0
VERTEX
8
0
10
-0.050000
20
0.237000
0
VERTEX
8
0
10
-0.125000
20
0.162000
0
VERTEX
8
0
10
-0.325000
20
0.162000
0
VERTEX
8
0
10
-0.325000
20
0.077000
0
VERTEX
8
0
10
-0.325000
20
0.037000
0
SEQEND
8
0
0
POLYLINE
8
0
66
1
40
0.040000
41
0.040000
0
VERTEX
8
0
10
0.925000
20
1.037000
0
VERTEX
8
0
10
0.925000
20
0.987000
0
VERTEX
8
0
10
0.875000
20
0.937000
0
VERTEX
8
0
10
0.250000
20
0.937000
0
VERTEX
8
0
10
0.175000
20
0.862000
0
VERTEX
8
0
10
-0.750000
20
0.862000
0
VERTEX
8
0
10
-0.775000
20
0.837000
0
VERTEX
8
0
10
-0.950000
20
0.837000
0
SEQEND
8
0
0
POLYLINE
8
0
66
1
40
0.040000
41
0.040000
0
VERTEX
8
0
10
1.325000
20
0.037000
0
VERTEX
8
0
10
1.325000
20
0.087000
0
VERTEX
8
0
10
1.175000
20
0.237000
0
VERTEX
8
0
10
0.700000
20
0.237000
0
VERTEX
8
0
10
0.550000
20
0.387000
0
VERTEX
8
0
10
-0.100000
20
0.387000
0
VERTEX
8
0
10
-0.175000
20
0.312000
0
VERTEX
8
0
10
-0.675000
20
0.312000
0
VERTEX
8
0
10
-0.850000
20
0.137000
0
VERTEX
8
0
10
-0.950000
20
0.137000
0
SEQEND
8
0
0
POLYLINE
8
0
66
1
40
0.040000
41
0.040000
0
VERTEX
8
0
10
1.425000
20
0.037000
0
VERTEX
8
0
10
1.425000
20
0.087000
0
VERTEX
8
0
10
1.200000
20
0.312000
0
VERTEX
8
0
10
0.725000
20
0.312000
0
VERTEX
8
0
10
0.575000
20
0.462000
0
VERTEX
8
0
10
-0.125000
20
0.462000
0
VERTEX
8
0
10
-0.200000
20
0.387000
0
VERTEX
8
0
10
-0.700000
20
0.387000
0
VERTEX
8
0
10
-0.850000
20
0.237000
0
VERTEX
8
0
10
-0.950000
20
0.237000
0
SEQEND
8
0
0
POLYLINE
8
0
66
1
40
0.070000
41
0.070000
0
VERTEX
8
0
10
0.325000
20
1.412000
0
VERTEX
8
0
10
0.325000
20
1.487000
0
SEQEND
8
0
0
POLYLINE
8
0
66
1
40
0.040000
41
0.040000
0
VERTEX
8
0
10
0.600000
20
0.662000
0
VERTEX
8
0
10
0.600000
20
0.702000
0
VERTEX
8
0
10
0.600000
20
0.787000
0
SEQEND
8
0
0
POLYLINE
8
0
66
1
40
0.040000
41
0.040000
0
VERTEX
8
0
10
0.275000
20
0.637000
0
VERTEX
8
0
10
0.275000
20
0.762000
0
VERTEX
8
0
10
0.300000
20
0.787000
0
VERTEX
8
0
10
0.600000
20
0.787000
0
VERTEX
8
0
10
0.925000
20
0.787000
0
VERTEX
8
0
10
1.075000
20
0.937000
0
VERTEX
8
0
10
1.125000
20
0.937000
0
VERTEX
8
0
10
1.125000
20
1.137000
0
VERTEX
8
0
10
0.625000
20
1.137000
0
VERTEX
8
0
10
0.625000
20
1.037000
0
SEQEND
8
0
0
POLYLINE
8
0
66
1
40
0.040000
41
0.040000
0
VERTEX
8
0
10
0.600000
20
0.037000
0
VERTEX
8
0
10
0.600000
20
-0.002000
0
VERTEX
8
0
10
0.600000
20
-0.062000
0
VERTEX
8
0
10
0.825000
20
-0.062000
0
VERTEX
8
0
10
0.825000
20
0.037000
0
SEQEND
8
0
0
POLYLINE
8
0
66
1
40
0.040000
41
0.040000
0
VERTEX
8
0
10
0.275000
20
-0.362000
0
VERTEX
8
0
10
0.275000
20
-0.212000
0
SEQEND
8
0
0
POLYLINE
8
0
66
1
40
0.040000
41
0.040000
0
VERTEX
8
0
10
0.375000
20
-0.362000
0
VERTEX
8
0
10
0.375000
20
-0.212000
0
SEQEND
8
0
0
POLYLINE
8
0
66
1
40
0.040000
41
0.040000
0
VERTEX
8
0
10
0.375000
20
-0.362000
0
VERTEX
8
0
10
0.375000
20
-0.462000
0
VERTEX
8
0
10
0.250000
20
-0.462000
0
VERTEX
8
0
10
0.150000
20
-0.362000
0
VERTEX
8
0
10
0.150000
20
-0.162000
0
VERTEX
8
0
10
0.275000
20
-0.037000
0
VERTEX
8
0
10
0.275000
20
-0.002000
0
VERTEX
8
0
10
0.275000
20
0.037000
0
SEQEND
8
0
0
POLYLINE
8
0
66
1
40
0.040000
41
0.040000
0
VERTEX
8
0
10
0.275000
20
-0.212000
0
VERTEX
8
0
10
0.275000
20
-0.172000
0
VERTEX
8
0
10
0.275000
20
-0.162000
0
VERTEX
8
0
10
0.375000
20
-0.062000
0
VERTEX
8
0
10
0.375000
20
0.037000
0
SEQEND
8
0
0
POLYLINE
8
0
66
1
40
0.040000
41
0.040000
0
VERTEX
8
0
10
0.675000
20
-0.812000
0
VERTEX
8
0
10
0.775000
20
-0.812000
0
SEQEND
8
0
0
POLYLINE
8
0
66
1
40
0.040000
41
0.040000
0
VERTEX
8
0
10
0.375000
20
-0.812000
0
VERTEX
8
0
10
0.475000
20
-0.812000
0
VERTEX
8
0
10
0.575000
20
-0.812000
0
SEQEND
8
0
0
POLYLINE
8
0
66
1
40
0.040000
41
0.040000
0
VERTEX
8
0
10
-0.225000
20
0.037000
0
VERTEX
8
0
10
-0.225000
20
-0.037000
0
VERTEX
8
0
10
-0.175000
20
-0.087000
0
SEQEND
8
0
0
POLYLINE
8
0
66
1
40
0.040000
41
0.040000
0
VERTEX
8
0
10
0.150000
20
-1.162000
0
VERTEX
8
0
10
0.275000
20
-1.162000
0
VERTEX
8
0
10
0.275000
20
-0.912000
0
VERTEX
8
0
10
0.375000
20
-0.912000
0
VERTEX
8
0
10
0.375000
20
-0.812000
0
SEQEND
8
0
0
POLYLINE
8
0
66
1
40
0.040000
41
0.040000
0
VERTEX
8
0
10
-0.175000
20
-0.087000
0
VERTEX
8
0
10
-0.125000
20
-0.137000
0
VERTEX
8
0
10
0.025000
20
-0.137000
0
SEQEND
8
0
0
POLYLINE
8
0
66
1
40
0.040000
41
0.040000
0
VERTEX
8
0
10
0.025000
20
-0.887000
0
VERTEX
8
0
10
-0.075000
20
-0.987000
0
VERTEX
8
0
10
-0.350000
20
-0.987000
0
SEQEND
8
0
0
POLYLINE
8
0
66
1
40
0.040000
41
0.040000
0
VERTEX
8
0
10
-0.500000
20
-0.887000
0
VERTEX
8
0
10
-0.500000
20
-0.937000
0
VERTEX
8
0
10
-0.450000
20
-0.987000
0
VERTEX
8
0
10
-0.350000
20
-0.987000
0
SEQEND
8
0
0
POLYLINE
8
0
66
1
40
0.040000
41
0.040000
0
VERTEX
8
0
10
0.375000
20
-0.362000
0
VERTEX
8
0
10
0.975000
20
-0.362000
0
VERTEX
8
0
10
0.975000
20
-0.212000
0
SEQEND
8
0
0
POLYLINE
8
0
66
1
40
0.040000
41
0.040000
0
VERTEX
8
0
10
0.975000
20
-0.812000
0
VERTEX
8
0
10
0.975000
20
-0.712000
0
VERTEX
8
0
10
0.825000
20
-0.562000
0
VERTEX
8
0
10
0.225000
20
-0.562000
0
VERTEX
8
0
10
-0.125000
20
-0.212000
0
VERTEX
8
0
10
-0.200000
20
-0.212000
0
VERTEX
8
0
10
-0.350000
20
-0.062000
0
VERTEX
8
0
10
-0.950000
20
-0.062000
0
SEQEND
8
0
0
POLYLINE
8
0
66
1
40
0.040000
41
0.040000
0
VERTEX
8
0
10
0.875000
20
-0.812000
0
VERTEX
8
0
10
0.875000
20
-0.737000
0
VERTEX
8
0
10
0.775000
20
-0.637000
0
VERTEX
8
0
10
0.175000
20
-0.637000
0
VERTEX
8
0
10
-0.175000
20
-0.287000
0
VERTEX
8
0
10
-0.250000
20
-0.287000
0
VERTEX
8
0
10
-0.375000
20
-0.162000
0
VERTEX
8
0
10
-0.910000
20
-0.162000
0
VERTEX
8
0
10
-0.950000
20
-0.162000
0
SEQEND
8
0
0
POLYLINE
8
0
66
1
40
0.040000
41
0.040000
0
VERTEX
8
0
10
0.275000
20
-0.812000
0
VERTEX
8
0
10
0.275000
20
-0.772000
0
VERTEX
8
0
10
0.275000
20
-0.712000
0
VERTEX
8
0
10
0.125000
20
-0.712000
0
VERTEX
8
0
10
-0.225000
20
-0.362000
0
VERTEX
8
0
10
-0.300000
20
-0.362000
0
VERTEX
8
0
10
-0.400000
20
-0.262000
0
VERTEX
8
0
10
-0.950000
20
-0.262000
0
SEQEND
8
0
0
POLYLINE
8
0
66
1
40
0.040000
41
0.040000
0
VERTEX
8
0
10
0.575000
20
-0.812000
0
VERTEX
8
0
10
0.575000
20
-0.912000
0
VERTEX
8
0
10
1.200000
20
-0.912000
0
VERTEX
8
0
10
1.200000
20
-0.087000
0
VERTEX
8
0
10
1.025000
20
-0.087000
0
VERTEX
8
0
10
1.025000
20
0.037000
0
SEQEND
8
0
0
POLYLINE
8
0
66
1
40
0.040000
41
0.040000
0
VERTEX
8
0
10
0.925000
20
-0.087000
0
VERTEX
8
0
10
0.875000
20
-0.137000
0
VERTEX
8
0
10
0.875000
20
-0.212000
0
VERTEX
8
0
10
0.875000
20
-0.237000
0
SEQEND
8
0
0
POLYLINE
8
0
66
1
40
0.040000
41
0.040000
0
VERTEX
8
0
10
1.100000
20
-0.387000
0
VERTEX
8
0
10
1.100000
20
-0.212000
0
VERTEX
8
0
10
0.975000
20
-0.212000
0
SEQEND
8
0
0
POLYLINE
8
0
66
1
40
0.040000
41
0.040000
0
VERTEX
8
0
10
2.200000
20
-1.487000
0
VERTEX
8
0
10
2.200000
20
-1.512000
0
SEQEND
8
0
0
POLYLINE
8
0
66
1
40
0.040000
41
0.040000
0
VERTEX
8
0
10
2.200000
20
-1.487000
0
VERTEX
8
0
10
2.200000
20
-0.787000
0
VERTEX
8
0
10
2.375000
20
-0.787000
0
SEQEND
8
0
0
POLYLINE
8
0
66
1
40
0.080000
41
0.080000
0
VERTEX
8
0
10
1.075000
20
-1.487000
0
VERTEX
8
0
10
1.075000
20
-1.527000
0
SEQEND
8
0
0
POLYLINE
8
0
66
1
40
0.070000
41
0.070000
0
VERTEX
8
0
10
0.975000
20
-1.487000
0
VERTEX
8
0
10
0.975000
20
-1.612000
0
SEQEND
8
0
0
POLYLINE
8
0
66
1
40
0.070000
41
0.070000
0
VERTEX
8
0
10
0.875000
20
-1.487000
0
VERTEX
8
0
10
0.875000
20
-1.612000
0
SEQEND
8
0
0
POLYLINE
8
0
66
1
40
0.040000
41
0.040000
0
VERTEX
8
0
10
-0.400000
20
-1.637000
0
VERTEX
8
0
10
-0.800000
20
-1.637000
0
VERTEX
8
0
10
-0.800000
20
-1.612000
0
VERTEX
8
0
10
-0.800000
20
-1.587000
0
SEQEND
8
0
0
POLYLINE
8
0
66
1
40
0.040000
41
0.040000
0
VERTEX
8
0
10
-0.800000
20
-1.512000
0
VERTEX
8
0
10
-0.800000
20
-1.587000
0
SEQEND
8
0
0
POLYLINE
8
0
66
1
40
0.040000
41
0.040000
0
VERTEX
8
0
10
-0.400000
20
-1.637000
0
VERTEX
8
0
10
-0.400000
20
-1.537000
0
SEQEND
8
0
0
POLYLINE
8
0
66
1
40
0.080000
41
0.080000
0
VERTEX
8
0
10
1.850000
20
-1.487000
0
VERTEX
8
0
10
1.650000
20
-1.487000
0
SEQEND
8
0
0
POLYLINE
8
0
66
1
40
0.040000
41
0.040000
0
VERTEX
8
0
10
2.075000
20
-1.212000
0
VERTEX
8
0
10
2.100000
20
-1.187000
0
VERTEX
8
0
10
2.100000
20
-0.522000
0
VERTEX
8
0
10
2.100000
20
-0.512000
0
SEQEND
8
0
0
POLYLINE
8
0
66
1
40
0.040000
41
0.040000
0
VERTEX
8
0
10
1.325000
20
0.637000
0
VERTEX
8
0
10
1.325000
20
0.537000
0
SEQEND
8
0
0
POLYLINE
8
0
66
1
40
0.040000
41
0.040000
0
VERTEX
8
0
10
0.825000
20
0.487000
0
VERTEX
8
0
10
1.225000
20
0.487000
0
VERTEX
8
0
10
1.300000
20
0.412000
0
VERTEX
8
0
10
1.350000
20
0.412000
0
VERTEX
8
0
10
1.425000
20
0.487000
0
VERTEX
8
0
10
1.425000
20
0.637000
0
SEQEND
8
0
0
POLYLINE
8
0
66
1
40
0.080000
41
0.080000
0
VERTEX
8
0
10
1.075000
20
-1.527000
0
VERTEX
8
0
10
1.075000
20
-1.612000
0
SEQEND
8
0
0
POLYLINE
8
0
66
1
40
0.070000
41
0.070000
0
VERTEX
8
0
10
0.875000
20
-1.612000
0
VERTEX
8
0
10
0.975000
20
-1.612000
0
VERTEX
8
0
10
1.000000
20
-1.612000
0
VERTEX
8
0
10
1.075000
20
-1.612000
0
SEQEND
8
0
0
POLYLINE
8
0
66
1
40
0.040000
41
0.040000
0
VERTEX
8
0
10
2.200000
20
-1.512000
0
VERTEX
8
0
10
2.200000
20
-1.637000
0
VERTEX
8
0
10
1.625000
20
-1.637000
0
VERTEX
8
0
10
1.600000
20
-1.612000
0
VERTEX
8
0
10
1.425000
20
-1.612000
0
VERTEX
8
0
10
1.375000
20
-1.612000
0
SEQEND
8
0
0
POLYLINE
8
0
66
1
40
0.070000
41
0.070000
0
VERTEX
8
0
10
1.075000
20
-1.612000
0
VERTEX
8
0
10
1.375000
20
-1.612000
0
SEQEND
8
0
0
POLYLINE
8
0
66
1
40
0.040000
41
0.040000
0
VERTEX
8
0
10
2.100000
20
-0.512000
0
VERTEX
8
0
10
2.100000
20
-0.187000
0
SEQEND
8
0
0
POLYLINE
8
0
66
1
40
0.040000
41
0.040000
0
VERTEX
8
0
10
1.900000
20
1.587000
0
VERTEX
8
0
10
1.900000
20
0.762000
0
VERTEX
8
0
10
1.900000
20
0.512000
0
SEQEND
8
0
0
POLYLINE
8
0
66
1
40
0.040000
41
0.040000
0
VERTEX
8
0
10
1.425000
20
0.637000
0
VERTEX
8
0
10
1.425000
20
0.762000
0
SEQEND
8
0
0
POLYLINE
8
0
66
1
40
0.040000
41
0.040000
0
VERTEX
8
0
10
0.725000
20
0.487000
0
VERTEX
8
0
10
0.725000
20
0.412000
0
VERTEX
8
0
10
0.750000
20
0.387000
0
VERTEX
8
0
10
1.225000
20
0.387000
0
VERTEX
8
0
10
1.350000
20
0.262000
0
VERTEX
8
0
10
1.525000
20
0.262000
0
VERTEX
8
0
10
1.650000
20
0.262000
0
SEQEND
8
0
0
POLYLINE
8
0
66
1
40
0.080000
41
0.080000
0
VERTEX
8
0
10
1.650000
20
-0.587000
0
VERTEX
8
0
10
1.650000
20
0.262000
0
VERTEX
8
0
10
1.650000
20
1.362000
0
SEQEND
8
0
0
POLYLINE
8
0
66
1
40
0.070000
41
0.070000
0
VERTEX
8
0
10
0.325000
20
1.387000
0
VERTEX
8
0
10
0.325000
20
1.412000
0
SEQEND
8
0
0
POLYLINE
8
0
66
1
40
0.040000
41
0.040000
0
VERTEX
8
0
10
1.625000
20
1.587000
0
VERTEX
8
0
10
1.900000
20
1.587000
0
SEQEND
8
0
0
POLYLINE
8
0
66
1
40
0.040000
41
0.040000
0
VERTEX
8
0
10
1.525000
20
1.587000
0
VERTEX
8
0
10
1.525000
20
1.362000
0
SEQEND
8
0
0
POLYLINE
8
0
66
1
40
0.070000
41
0.070000
0
VERTEX
8
0
10
0.325000
20
1.387000
0
VERTEX
8
0
10
0.325000
20
1.362000
0
VERTEX
8
0
10
1.525000
20
1.362000
0
VERTEX
8
0
10
1.650000
20
1.362000
0
SEQEND
8
0
0
POLYLINE
8
0
66
1
40
0.040000
41
0.040000
0
VERTEX
8
0
10
2.100000
20
1.862000
0
VERTEX
8
0
10
2.100000
20
0.587000
0
SEQEND
8
0
0
POLYLINE
8
0
66
1
40
0.040000
41
0.040000
0
VERTEX
8
0
10
-2.650000
20
1.737000
0
VERTEX
8
0
10
-2.725000
20
1.812000
0
VERTEX
8
0
10
-2.750000
20
1.837000
0
VERTEX
8
0
10
-2.750000
20
1.887000
0
VERTEX
8
0
10
-2.700000
20
1.937000
0
VERTEX
8
0
10
-2.700000
20
1.987000
0
SEQEND
8
0
0
POLYLINE
8
0
66
1
40
0.040000
41
0.040000
0
VERTEX
8
0
10
-2.550000
20
1.737000
0
VERTEX
8
0
10
-2.550000
20
1.812000
0
VERTEX
8
0
10
-2.500000
20
1.862000
0
VERTEX
8
0
10
-2.500000
20
1.987000
0
SEQEND
8
0
0
POLYLINE
8
0
66
1
40
0.040000
41
0.040000
0
VERTEX
8
0
10
-2.450000
20
1.737000
0
VERTEX
8
0
10
-2.450000
20
1.812000
0
VERTEX
8
0
10
-2.400000
20
1.862000
0
VERTEX
8
0
10
-2.400000
20
1.987000
0
SEQEND
8
0
0
POLYLINE
8
0
66
1
40
0.040000
41
0.040000
0
VERTEX
8
0
10
-2.350000
20
1.737000
0
VERTEX
8
0
10
-2.350000
20
1.812000
0
VERTEX
8
0
10
-2.300000
20
1.862000
0
VERTEX
8
0
10
-2.300000
20
1.987000
0
SEQEND
8
0
0
POLYLINE
8
0
66
1
40
0.040000
41
0.040000
0
VERTEX
8
0
10
-2.250000
20
1.737000
0
VERTEX
8
0
10
-2.250000
20
1.812000
0
VERTEX
8
0
10
-2.200000
20
1.862000
0
VERTEX
8
0
10
-2.200000
20
1.987000
0
SEQEND
8
0
0
POLYLINE
8
0
66
1
40
0.040000
41
0.040000
0
VERTEX
8
0
10
-2.150000
20
1.737000
0
VERTEX
8
0
10
-2.150000
20
1.812000
0
VERTEX
8
0
10
-2.100000
20
1.862000
0
VERTEX
8
0
10
-2.100000
20
1.987000
0
SEQEND
8
0
0
POLYLINE
8
0
66
1
40
0.040000
41
0.040000
0
VERTEX
8
0
10
-2.050000
20
1.737000
0
VERTEX
8
0
10
-2.050000
20
1.812000
0
VERTEX
8
0
10
-2.000000
20
1.862000
0
VERTEX
8
0
10
-2.000000
20
1.947000
0
VERTEX
8
0
10
-2.000000
20
1.987000
0
SEQEND
8
0
0
POLYLINE
8
0
66
1
40
0.040000
41
0.040000
0
VERTEX
8
0
10
-1.950000
20
1.737000
0
VERTEX
8
0
10
-1.950000
20
1.812000
0
VERTEX
8
0
10
-1.900000
20
1.862000
0
VERTEX
8
0
10
-1.900000
20
1.947000
0
VERTEX
8
0
10
-1.900000
20
1.987000
0
SEQEND
8
0
0
POLYLINE
8
0
66
1
40
0.040000
41
0.040000
0
VERTEX
8
0
10
-1.850000
20
1.737000
0
VERTEX
8
0
10
-1.850000
20
1.812000
0
VERTEX
8
0
10
-1.800000
20
1.862000
0
VERTEX
8
0
10
-1.800000
20
1.947000
0
VERTEX
8
0
10
-1.800000
20
1.987000
0
SEQEND
8
0
0
POLYLINE
8
0
66
1
40
0.040000
41
0.040000
0
VERTEX
8
0
10
-1.750000
20
1.737000
0
VERTEX
8
0
10
-1.750000
20
1.777000
0
VERTEX
8
0
10
-1.750000
20
1.812000
0
VERTEX
8
0
10
-1.700000
20
1.862000
0
VERTEX
8
0
10
-1.700000
20
1.987000
0
SEQEND
8
0
0
POLYLINE
8
0
66
1
40
0.040000
41
0.040000
0
VERTEX
8
0
10
-1.650000
20
1.737000
0
VERTEX
8
0
10
-1.650000
20
1.812000
0
VERTEX
8
0
10
-1.600000
20
1.862000
0
VERTEX
8
0
10
-1.600000
20
1.987000
0
SEQEND
8
0
0
POLYLINE
8
0
66
1
40
0.040000
41
0.040000
0
VERTEX
8
0
10
-1.550000
20
1.737000
0
VERTEX
8
0
10
-1.550000
20
1.812000
0
VERTEX
8
0
10
-1.500000
20
1.862000
0
VERTEX
8
0
10
-1.500000
20
1.987000
0
SEQEND
8
0
0
POLYLINE
8
0
66
1
40
0.040000
41
0.040000
0
VERTEX
8
0
10
-1.450000
20
1.737000
0
VERTEX
8
0
10
-1.450000
20
1.812000
0
VERTEX
8
0
10
-1.400000
20
1.862000
0
VERTEX
8
0
10
-1.400000
20
1.987000
0
SEQEND
8
0
0
POLYLINE
8
0
66
1
40
0.040000
41
0.040000
0
VERTEX
8
0
10
-2.650000
20
1.862000
0
VERTEX
8
0
10
-2.600000
20
1.912000
0
VERTEX
8
0
10
-2.600000
20
1.987000
0
SEQEND
8
0
0
POLYLINE
8
0
66
1
40
0.040000
41
0.040000
0
VERTEX
8
0
10
0.875000
20
-1.612000
0
VERTEX
8
0
10
0.825000
20
-1.612000
0
SEQEND
8
0
0
POLYLINE
8
0
66
1
40
0.040000
41
0.040000
0
VERTEX
8
0
10
0.150000
20
-1.562000
0
VERTEX
8
0
10
0.150000
20
-1.637000
0
SEQEND
8
0
0
POLYLINE
8
0
66
1
40
0.040000
41
0.040000
0
VERTEX
8
0
10
0.250000
20
-1.637000
0
VERTEX
8
0
10
0.150000
20
-1.637000
0
SEQEND
8
0
0
POLYLINE
8
0
66
1
40
0.040000
41
0.040000
0
VERTEX
8
0
10
-0.050000
20
-1.537000
0
VERTEX
8
0
10
-0.050000
20
-1.637000
0
SEQEND
8
0
0
POLYLINE
8
0
66
1
40
0.040000
41
0.040000
0
VERTEX
8
0
10
0.150000
20
-1.637000
0
VERTEX
8
0
10
-0.050000
20
-1.637000
0
VERTEX
8
0
10
-0.400000
20
-1.637000
0
SEQEND
8
0
0
POLYLINE
8
0
66
1
40
0.070000
41
0.070000
0
VERTEX
8
0
10
-0.050000
20
-1.437000
0
VERTEX
8
0
10
-0.200000
20
-1.437000
0
SEQEND
8
0
0
POLYLINE
8
0
66
1
40
0.070000
41
0.070000
0
VERTEX
8
0
10
0.825000
20
-1.612000
0
VERTEX
8
0
10
0.500000
20
-1.612000
0
VERTEX
8
0
10
0.500000
20
-1.437000
0
VERTEX
8
0
10
-0.050000
20
-1.437000
0
SEQEND
8
0
0
POLYLINE
8
0
66
1
40
0.070000
41
0.070000
0
VERTEX
8
0
10
-0.200000
20
-1.437000
0
VERTEX
8
0
10
-0.400000
20
-1.437000
0
SEQEND
8
0
0
POLYLINE
8
0
66
1
40
0.070000
41
0.070000
0
VERTEX
8
0
10
-0.200000
20
-1.337000
0
VERTEX
8
0
10
-0.400000
20
-1.337000
0
SEQEND
8
0
0
POLYLINE
8
0
66
1
40
0.070000
41
0.070000
0
VERTEX
8
0
10
1.650000
20
-0.587000
0
VERTEX
8
0
10
1.525000
20
-0.712000
0
VERTEX
8
0
10
1.525000
20
-1.337000
0
VERTEX
8
0
10
-0.200000
20
-1.337000
0
SEQEND
8
0
0
POLYLINE
8
0
66
1
40
0.040000
41
0.040000
0
VERTEX
8
0
10
0.800000
20
-1.087000
0
VERTEX
8
0
10
0.800000
20
-1.237000
0
SEQEND
8
0
0
POLYLINE
8
0
66
1
40
0.040000
41
0.040000
0
VERTEX
8
0
10
-0.350000
20
-0.987000
0
VERTEX
8
0
10
-0.275000
20
-1.062000
0
VERTEX
8
0
10
-0.275000
20
-1.237000
0
VERTEX
8
0
10
0.800000
20
-1.237000
0
SEQEND
8
0
0
POLYLINE
8
0
66
1
40
0.040000
41
0.040000
0
VERTEX
8
0
10
-2.550000
20
1.637000
0
VERTEX
8
0
10
-2.550000
20
1.487000
0
VERTEX
8
0
10
-2.525000
20
1.437000
0
VERTEX
8
0
10
-2.525000
20
0.237000
0
SEQEND
8
0
0
POLYLINE
8
0
66
1
40
0.040000
41
0.040000
0
VERTEX
8
0
10
-2.450000
20
1.637000
0
VERTEX
8
0
10
-2.450000
20
1.487000
0
VERTEX
8
0
10
-2.425000
20
1.437000
0
VERTEX
8
0
10
-2.425000
20
0.237000
0
SEQEND
8
0
0
POLYLINE
8
0
66
1
40
0.040000
41
0.040000
0
VERTEX
8
0
10
-2.350000
20
1.637000
0
VERTEX
8
0
10
-2.350000
20
1.487000
0
VERTEX
8
0
10
-2.325000
20
1.437000
0
VERTEX
8
0
10
-2.325000
20
0.237000
0
SEQEND
8
0
0
POLYLINE
8
0
66
1
40
0.040000
41
0.040000
0
VERTEX
8
0
10
-2.250000
20
1.637000
0
VERTEX
8
0
10
-2.250000
20
1.487000
0
VERTEX
8
0
10
-2.225000
20
1.437000
0
VERTEX
8
0
10
-2.225000
20
0.237000
0
SEQEND
8
0
0
POLYLINE
8
0
66
1
40
0.040000
41
0.040000
0
VERTEX
8
0
10
-2.150000
20
1.637000
0
VERTEX
8
0
10
-2.150000
20
1.487000
0
VERTEX
8
0
10
-2.125000
20
1.437000
0
VERTEX
8
0
10
-2.125000
20
0.237000
0
SEQEND
8
0
0
POLYLINE
8
0
66
1
40
0.040000
41
0.040000
0
VERTEX
8
0
10
-2.050000
20
1.637000
0
VERTEX
8
0
10
-2.050000
20
1.487000
0
VERTEX
8
0
10
-2.025000
20
1.437000
0
VERTEX
8
0
10
-2.025000
20
0.237000
0
SEQEND
8
0
0
POLYLINE
8
0
66
1
40
0.040000
41
0.040000
0
VERTEX
8
0
10
-1.950000
20
1.637000
0
VERTEX
8
0
10
-1.950000
20
1.487000
0
VERTEX
8
0
10
-1.925000
20
1.437000
0
VERTEX
8
0
10
-1.925000
20
0.237000
0
SEQEND
8
0
0
POLYLINE
8
0
66
1
40
0.040000
41
0.040000
0
VERTEX
8
0
10
-1.850000
20
1.637000
0
VERTEX
8
0
10
-1.850000
20
1.487000
0
VERTEX
8
0
10
-1.825000
20
1.437000
0
VERTEX
8
0
10
-1.825000
20
0.237000
0
SEQEND
8
0
0
POLYLINE
8
0
66
1
40
0.040000
41
0.040000
0
VERTEX
8
0
10
-1.750000
20
1.637000
0
VERTEX
8
0
10
-1.750000
20
1.487000
0
VERTEX
8
0
10
-1.725000
20
1.437000
0
VERTEX
8
0
10
-1.725000
20
0.237000
0
SEQEND
8
0
0
POLYLINE
8
0
66
1
40
0.040000
41
0.040000
0
VERTEX
8
0
10
-1.650000
20
1.637000
0
VERTEX
8
0
10
-1.650000
20
1.487000
0
VERTEX
8
0
10
-1.625000
20
1.437000
0
VERTEX
8
0
10
-1.625000
20
0.237000
0
SEQEND
8
0
0
POLYLINE
8
0
66
1
40
0.040000
41
0.040000
0
VERTEX
8
0
10
-1.550000
20
1.637000
0
VERTEX
8
0
10
-1.550000
20
1.487000
0
VERTEX
8
0
10
-1.525000
20
1.437000
0
VERTEX
8
0
10
-1.525000
20
0.237000
0
SEQEND
8
0
0
POLYLINE
8
0
66
1
40
0.040000
41
0.040000
0
VERTEX
8
0
10
-1.350000
20
-0.737000
0
VERTEX
8
0
10
-1.350000
20
-0.837000
0
VERTEX
8
0
10
-1.500000
20
-0.987000
0
VERTEX
8
0
10
-1.500000
20
-1.037000
0
SEQEND
8
0
0
POLYLINE
8
0
66
1
40
0.040000
41
0.040000
0
VERTEX
8
0
10
-1.425000
20
-0.737000
0
VERTEX
8
0
10
-1.425000
20
-0.812000
0
VERTEX
8
0
10
-1.600000
20
-0.987000
0
VERTEX
8
0
10
-1.600000
20
-1.037000
0
SEQEND
8
0
0
POLYLINE
8
0
66
1
40
0.040000
41
0.040000
0
VERTEX
8
0
10
-0.550000
20
-1.437000
0
VERTEX
8
0
10
-0.550000
20
-1.237000
0
VERTEX
8
0
10
-0.550000
20
-1.012000
0
VERTEX
8
0
10
-0.600000
20
-1.012000
0
SEQEND
8
0
0
POLYLINE
8
0
66
1
40
0.040000
41
0.040000
0
VERTEX
8
0
10
-0.550000
20
-1.237000
0
VERTEX
8
0
10
-1.075000
20
-1.237000
0
VERTEX
8
0
10
-1.175000
20
-1.337000
0
VERTEX
8
0
10
-1.175000
20
-1.437000
0
VERTEX
8
0
10
-1.200000
20
-1.462000
0
VERTEX
8
0
10
-1.800000
20
-1.462000
0
VERTEX
8
0
10
-1.800000
20
-1.112000
0
SEQEND
8
0
0
POLYLINE
8
0
66
1
40
0.040000
41
0.040000
0
VERTEX
8
0
10
-1.700000
20
-1.362000
0
VERTEX
8
0
10
-1.700000
20
-1.112000
0
SEQEND
8
0
0
POLYLINE
8
0
66
1
40
0.040000
41
0.040000
0
VERTEX
8
0
10
-2.000000
20
-1.362000
0
VERTEX
8
0
10
-1.900000
20
-1.362000
0
SEQEND
8
0
0
POLYLINE
8
0
66
1
40
0.040000
41
0.040000
0
VERTEX
8
0
10
-2.850000
20
-0.062000
0
VERTEX
8
0
10
-2.825000
20
-0.062000
0
VERTEX
8
0
10
-2.800000
20
-0.062000
0
VERTEX
8
0
10
-2.750000
20
-0.112000
0
VERTEX
8
0
10
-2.750000
20
-0.162000
0
SEQEND
8
0
0
POLYLINE
8
0
66
1
40
0.040000
41
0.040000
0
VERTEX
8
0
10
-1.950000
20
-1.112000
0
VERTEX
8
0
10
-1.800000
20
-1.112000
0
SEQEND
8
0
0
POLYLINE
8
0
66
1
40
0.040000
41
0.040000
0
VERTEX
8
0
10
-0.650000
20
-1.437000
0
VERTEX
8
0
10
-0.650000
20
-1.312000
0
VERTEX
8
0
10
-1.050000
20
-1.312000
0
VERTEX
8
0
10
-1.100000
20
-1.362000
0
VERTEX
8
0
10
-1.100000
20
-1.462000
0
VERTEX
8
0
10
-1.175000
20
-1.537000
0
VERTEX
8
0
10
-1.925000
20
-1.537000
0
VERTEX
8
0
10
-1.950000
20
-1.512000
0
VERTEX
8
0
10
-2.025000
20
-1.512000
0
VERTEX
8
0
10
-2.100000
20
-1.587000
0
VERTEX
8
0
10
-2.100000
20
-1.637000
0
VERTEX
8
0
10
-2.300000
20
-1.637000
0
VERTEX
8
0
10
-2.325000
20
-1.612000
0
VERTEX
8
0
10
-2.700000
20
-1.612000
0
VERTEX
8
0
10
-2.700000
20
-1.412000
0
VERTEX
8
0
10
-2.850000
20
-1.262000
0
VERTEX
8
0
10
-2.850000
20
-0.762000
0
SEQEND
8
0
0
POLYLINE
8
0
66
1
40
0.040000
41
0.040000
0
VERTEX
8
0
10
-2.850000
20
-0.562000
0
VERTEX
8
0
10
-2.800000
20
-0.562000
0
VERTEX
8
0
10
-2.750000
20
-0.612000
0
VERTEX
8
0
10
-2.750000
20
-1.262000
0
VERTEX
8
0
10
-2.625000
20
-1.387000
0
VERTEX
8
0
10
-2.625000
20
-1.537000
0
VERTEX
8
0
10
-2.525000
20
-1.537000
0
VERTEX
8
0
10
-2.150000
20
-1.537000
0
VERTEX
8
0
10
-2.015000
20
-1.402000
0
VERTEX
8
0
10
-2.000000
20
-1.362000
0
SEQEND
8
0
0
POLYLINE
8
0
66
1
40
0.040000
41
0.040000
0
VERTEX
8
0
10
-2.850000
20
-0.462000
0
VERTEX
8
0
10
-2.800000
20
-0.462000
0
VERTEX
8
0
10
-2.650000
20
-0.612000
0
VERTEX
8
0
10
-2.650000
20
-1.112000
0
SEQEND
8
0
0
POLYLINE
8
0
66
1
40
0.040000
41
0.040000
0
VERTEX
8
0
10
-2.375000
20
-1.437000
0
VERTEX
8
0
10
-2.550000
20
-1.437000
0
VERTEX
8
0
10
-2.550000
20
-0.612000
0
VERTEX
8
0
10
-2.750000
20
-0.412000
0
VERTEX
8
0
10
-2.750000
20
-0.162000
0
SEQEND
8
0
0
POLYLINE
8
0
66
1
40
0.040000
41
0.040000
0
VERTEX
8
0
10
-2.125000
20
-1.387000
0
VERTEX
8
0
10
-2.175000
20
-1.337000
0
VERTEX
8
0
10
-2.250000
20
-1.337000
0
VERTEX
8
0
10
-2.325000
20
-1.262000
0
VERTEX
8
0
10
-2.400000
20
-1.262000
0
VERTEX
8
0
10
-2.400000
20
-0.562000
0
VERTEX
8
0
10
-2.600000
20
-0.362000
0
VERTEX
8
0
10
-2.600000
20
-0.162000
0
VERTEX
8
0
10
-2.600000
20
-0.137000
0
SEQEND
8
0
0
POLYLINE
8
0
66
1
40
0.040000
41
0.040000
0
VERTEX
8
0
10
-2.850000
20
0.137000
0
VERTEX
8
0
10
-2.800000
20
0.137000
0
VERTEX
8
0
10
-2.600000
20
-0.062000
0
VERTEX
8
0
10
-2.600000
20
-0.137000
0
SEQEND
8
0
0
POLYLINE
8
0
66
1
40
0.040000
41
0.040000
0
VERTEX
8
0
10
-2.725000
20
0.237000
0
VERTEX
8
0
10
-2.725000
20
0.162000
0
VERTEX
8
0
10
-2.525000
20
-0.037000
0
VERTEX
8
0
10
-2.525000
20
-0.337000
0
VERTEX
8
0
10
-2.325000
20
-0.537000
0
VERTEX
8
0
10
-2.325000
20
-1.112000
0
VERTEX
8
0
10
-2.125000
20
-1.112000
0
VERTEX
8
0
10
-1.950000
20
-1.112000
0
SEQEND
8
0
0
POLYLINE
8
0
66
1
40
0.040000
41
0.040000
0
VERTEX
8
0
10
-2.625000
20
0.237000
0
VERTEX
8
0
10
-2.625000
20
0.162000
0
VERTEX
8
0
10
-2.450000
20
-0.012000
0
VERTEX
8
0
10
-2.450000
20
-0.312000
0
VERTEX
8
0
10
-2.250000
20
-0.512000
0
VERTEX
8
0
10
-2.250000
20
-0.987000
0
VERTEX
8
0
10
-1.700000
20
-0.987000
0
VERTEX
8
0
10
-1.700000
20
-1.112000
0
SEQEND
8
0
0
POLYLINE
8
0
66
1
40
0.040000
41
0.040000
0
VERTEX
8
0
10
-1.500000
20
-1.037000
0
VERTEX
8
0
10
-1.500000
20
-1.112000
0
SEQEND
8
0
0
POLYLINE
8
0
66
1
40
0.040000
41
0.040000
0
VERTEX
8
0
10
-1.600000
20
-1.037000
0
VERTEX
8
0
10
-1.600000
20
-1.112000
0
SEQEND
8
0
0
POLYLINE
8
0
66
1
40
0.040000
41
0.040000
0
VERTEX
8
0
10
-1.350000
20
1.637000
0
VERTEX
8
0
10
-1.350000
20
-0.737000
0
SEQEND
8
0
0
POLYLINE
8
0
66
1
40
0.040000
41
0.040000
0
VERTEX
8
0
10
-1.450000
20
1.637000
0
VERTEX
8
0
10
-1.450000
20
1.487000
0
VERTEX
8
0
10
-1.425000
20
1.462000
0
VERTEX
8
0
10
-1.425000
20
-0.737000
0
SEQEND
8
0
0
POLYLINE
8
0
66
1
40
0.040000
41
0.040000
0
VERTEX
8
0
10
-2.650000
20
1.637000
0
VERTEX
8
0
10
-2.650000
20
0.412000
0
VERTEX
8
0
10
-2.725000
20
0.337000
0
VERTEX
8
0
10
-2.725000
20
0.237000
0
SEQEND
8
0
0
POLYLINE
8
0
66
1
40
0.040000
41
0.040000
0
VERTEX
8
0
10
2.100000
20
0.612000
0
VERTEX
8
0
10
2.100000
20
0.587000
0
SEQEND
8
0
0
POLYLINE
8
0
66
1
40
0.040000
41
0.040000
0
VERTEX
8
0
10
2.100000
20
-0.187000
0
VERTEX
8
0
10
2.100000
20
0.587000
0
SEQEND
8
0
0
POLYLINE
8
0
66
1
40
0.040000
41
0.040000
0
VERTEX
8
0
10
-0.950000
20
0.737000
0
VERTEX
8
0
10
-0.775000
20
0.737000
0
VERTEX
8
0
10
-0.725000
20
0.787000
0
VERTEX
8
0
10
0.200000
20
0.787000
0
VERTEX
8
0
10
0.275000
20
0.862000
0
VERTEX
8
0
10
0.900000
20
0.862000
0
VERTEX
8
0
10
1.025000
20
0.987000
0
VERTEX
8
0
10
1.025000
20
1.037000
0
SEQEND
8
0
0
POLYLINE
8
0
66
1
40
0.040000
41
0.040000
0
VERTEX
8
0
10
2.775000
20
-1.187000
0
VERTEX
8
0
10
2.775000
20
-1.487000
0
VERTEX
8
0
10
2.475000
20
-1.787000
0
VERTEX
8
0
10
-2.375000
20
-1.787000
0
VERTEX
8
0
10
-2.375000
20
-1.712000
0
SEQEND
8
0
0
POLYLINE
8
0
66
1
40
0.040000
41
0.040000
0
VERTEX
8
0
10
1.300000
20
-0.087000
0
VERTEX
8
0
10
1.300000
20
-0.212000
0
VERTEX
8
0
10
1.300000
20
-1.100000
0
VERTEX
8
0
10
0.840000
20
-1.100000
0
VERTEX
8
0
10
0.800000
20
-1.087000
0
SEQEND
8
0
0
POLYLINE
8
0
66
1
40
0.040000
41
0.040000
0
VERTEX
8
0
10
1.775000
20
0.537000
0
VERTEX
8
0
10
1.775000
20
-0.212000
0
SEQEND
8
0
0
POLYLINE
8
0
66
1
40
0.040000
41
0.040000
0
VERTEX
8
0
10
-1.100000
20
-1.112000
0
VERTEX
8
0
10
-1.100000
20
-0.987000
0
VERTEX
8
0
10
-1.050000
20
-0.937000
0
VERTEX
8
0
10
-1.050000
20
0.987000
0
VERTEX
8
0
10
-1.000000
20
1.037000
0
VERTEX
8
0
10
-0.950000
20
1.037000
0
SEQEND
8
0
0
POLYLINE
8
0
66
1
40
0.040000
41
0.040000
0
VERTEX
8
0
10
-0.950000
20
1.137000
0
VERTEX
8
0
10
-1.000000
20
1.137000
0
VERTEX
8
0
10
-1.125000
20
1.012000
0
VERTEX
8
0
10
-1.125000
20
-0.912000
0
VERTEX
8
0
10
-1.200000
20
-0.987000
0
VERTEX
8
0
10
-1.200000
20
-1.112000
0
SEQEND
8
0
0
POLYLINE
8
0
66
1
40
0.040000
41
0.040000
0
VERTEX
8
0
10
-1.300000
20
-1.112000
0
VERTEX
8
0
10
-1.300000
20
-1.072000
0
VERTEX
8
0
10
-1.300000
20
-0.987000
0
VERTEX
8
0
10
-1.200000
20
-0.887000
0
VERTEX
8
0
10
-1.200000
20
1.037000
0
VERTEX
8
0
10
-1.000000
20
1.237000
0
VERTEX
8
0
10
-0.990000
20
1.237000
0
VERTEX
8
0
10
-0.950000
20
1.237000
0
SEQEND
8
0
0
POLYLINE
8
0
66
1
40
0.040000
41
0.040000
0
VERTEX
8
0
10
-0.950000
20
1.337000
0
VERTEX
8
0
10
-1.000000
20
1.337000
0
VERTEX
8
0
10
-1.275000
20
1.062000
0
VERTEX
8
0
10
-1.275000
20
-0.862000
0
VERTEX
8
0
10
-1.400000
20
-0.987000
0
VERTEX
8
0
10
-1.400000
20
-1.112000
0
SEQEND
8
0
0
POLYLINE
8
0
66
1
40
0.040000
41
0.040000
0
VERTEX
8
0
10
0.925000
20
1.637000
0
VERTEX
8
0
10
0.925000
20
1.737000
0
VERTEX
8
0
10
0.225000
20
1.737000
0
VERTEX
8
0
10
0.225000
20
1.212000
0
VERTEX
8
0
10
1.200000
20
1.212000
0
VERTEX
8
0
10
1.200000
20
0.887000
0
SEQEND
8
0
0
POLYLINE
8
0
66
1
40
0.040000
41
0.040000
0
VERTEX
8
0
10
1.325000
20
0.637000
0
VERTEX
8
0
10
1.325000
20
0.737000
0
VERTEX
8
0
10
1.200000
20
0.862000
0
VERTEX
8
0
10
1.200000
20
0.887000
0
SEQEND
8
0
0
POLYLINE
8
0
66
1
40
0.040000
41
0.040000
0
VERTEX
8
0
10
1.775000
20
-0.212000
0
VERTEX
8
0
10
1.775000
20
-1.237000
0
VERTEX
8
0
10
2.025000
20
-1.237000
0
VERTEX
8
0
10
2.075000
20
-1.212000
0
SEQEND
8
0
0
POLYLINE
8
0
66
1
40
0.040000
41
0.040000
0
VERTEX
8
0
10
2.625000
20
-1.412000
0
VERTEX
8
0
10
2.625000
20
-1.312000
0
VERTEX
8
0
10
2.475000
20
-1.312000
0
VERTEX
8
0
10
2.475000
20
-1.212000
0
SEQEND
8
0
0
POLYLINE
8
0
66
1
40
0.040000
41
0.040000
0
VERTEX
8
0
10
2.350000
20
-1.287000
0
VERTEX
8
0
10
2.350000
20
-1.162000
0
VERTEX
8
0
10
2.300000
20
-1.112000
0
SEQEND
8
0
0
POLYLINE
8
0
66
1
40
0.040000
41
0.040000
0
VERTEX
8
0
10
2.350000
20
-1.687000
0
VERTEX
8
0
10
2.350000
20
-1.512000
0
SEQEND
8
0
0
POLYLINE
8
0
66
1
40
0.040000
41
0.040000
0
VERTEX
8
0
10
2.525000
20
-1.412000
0
VERTEX
8
0
10
2.525000
20
-1.512000
0
VERTEX
8
0
10
2.350000
20
-1.512000
0
VERTEX
8
0
10
2.200000
20
-1.512000
0
SEQEND
8
0
0
POLYLINE
8
0
66
1
40
0.040000
41
0.040000
0
VERTEX
8
0
10
2.250000
20
-0.387000
0
VERTEX
8
0
10
2.400000
20
-0.387000
0
VERTEX
8
0
10
2.400000
20
-0.387000
0
VERTEX
8
0
10
2.400000
20
-0.587000
0
SEQEND
8
0
0
POLYLINE
8
0
66
1
40
0.040000
41
0.040000
0
VERTEX
8
0
10
2.375000
20
0.087000
0
VERTEX
8
0
10
2.275000
20
0.087000
0
VERTEX
8
0
10
2.275000
20
0.112000
0
SEQEND
8
0
0
POLYLINE
8
0
66
1
40
0.040000
41
0.040000
0
VERTEX
8
0
10
-0.050000
20
1.687000
0
VERTEX
8
0
10
-0.050000
20
1.412000
0
SEQEND
8
0
0
POLYLINE
8
0
66
1
40
0.040000
41
0.040000
0
VERTEX
8
0
10
-0.250000
20
1.687000
0
VERTEX
8
0
10
-0.250000
20
1.482000
0
SEQEND
8
0
0
POLYLINE
8
0
66
1
40
0.040000
41
0.040000
0
VERTEX
8
0
10
-1.150000
20
1.637000
0
VERTEX
8
0
10
-1.150000
20
1.482000
0
SEQEND
8
0
0
POLYLINE
8
0
66
1
40
0.040000
41
0.040000
0
VERTEX
8
0
10
-1.250000
20
1.637000
0
VERTEX
8
0
10
-1.250000
20
1.412000
0
SEQEND
8
0
0
POLYLINE
8
0
66
1
40
0.040000
41
0.040000
0
VERTEX
8
0
10
-0.800000
20
1.037000
0
VERTEX
8
0
10
-0.800000
20
1.587000
0
VERTEX
8
0
10
-0.800000
20
1.637000
0
VERTEX
8
0
10
-0.950000
20
1.637000
0
SEQEND
8
0
0
POLYLINE
8
0
66
1
40
0.040000
41
0.040000
0
VERTEX
8
0
10
1.025000
20
1.787000
0
VERTEX
8
0
10
1.050000
20
1.787000
0
SEQEND
8
0
0
POLYLINE
8
0
66
1
40
0.040000
41
0.040000
0
VERTEX
8
0
10
1.025000
20
1.677000
0
VERTEX
8
0
10
1.025000
20
1.787000
0
SEQEND
8
0
0
POLYLINE
8
0
66
1
40
0.040000
41
0.040000
0
VERTEX
8
0
10
1.050000
20
1.787000
0
VERTEX
8
0
10
1.900000
20
1.787000
0
VERTEX
8
0
10
1.900000
20
1.587000
0
SEQEND
8
0
0
POLYLINE
8
0
66
1
40
0.040000
41
0.040000
0
VERTEX
8
0
10
2.000000
20
-1.112000
0
VERTEX
8
0
10
2.000000
20
1.937000
0
SEQEND
8
0
0
POLYLINE
8
0
66
1
40
0.040000
41
0.040000
0
VERTEX
8
0
10
-1.225000
20
1.937000
0
VERTEX
8
0
10
-1.225000
20
1.862000
0
VERTEX
8
0
10
-1.225000
20
1.837000
0
VERTEX
8
0
10
-1.250000
20
1.812000
0
VERTEX
8
0
10
-1.250000
20
1.737000
0
SEQEND
8
0
0
POLYLINE
8
0
66
1
40
0.040000
41
0.040000
0
VERTEX
8
0
10
0.075000
20
1.937000
0
VERTEX
8
0
10
2.000000
20
1.937000
0
SEQEND
8
0
0
POLYLINE
8
0
66
1
40
0.040000
41
0.040000
0
VERTEX
8
0
10
-1.150000
20
1.737000
0
VERTEX
8
0
10
-1.150000
20
1.812000
0
VERTEX
8
0
10
-1.025000
20
1.937000
0
VERTEX
8
0
10
-0.150000
20
1.937000
0
VERTEX
8
0
10
-0.150000
20
1.687000
0
SEQEND
8
0
0
POLYLINE
8
0
66
1
40
0.040000
41
0.040000
0
VERTEX
8
0
10
-0.350000
20
1.687000
0
VERTEX
8
0
10
-0.350000
20
1.862000
0
VERTEX
8
0
10
-0.975000
20
1.862000
0
VERTEX
8
0
10
-1.050000
20
1.787000
0
VERTEX
8
0
10
-1.050000
20
1.737000
0
SEQEND
8
0
0
POLYLINE
8
0
66
1
40
0.040000
41
0.040000
0
VERTEX
8
0
10
-0.450000
20
1.687000
0
VERTEX
8
0
10
-0.450000
20
1.787000
0
VERTEX
8
0
10
-0.950000
20
1.787000
0
VERTEX
8
0
10
-0.950000
20
1.737000
0
SEQEND
8
0
0
POLYLINE
8
0
66
1
40
0.040000
41
0.040000
0
VERTEX
8
0
10
0.325000
20
1.037000
0
VERTEX
8
0
10
0.225000
20
1.037000
0
VERTEX
8
0
10
0.225000
20
1.012000
0
VERTEX
8
0
10
0.150000
20
0.937000
0
VERTEX
8
0
10
-0.950000
20
0.937000
0
SEQEND
8
0
0
POLYLINE
8
0
66
1
40
0.040000
41
0.040000
0
VERTEX
8
0
10
-0.550000
20
1.687000
0
VERTEX
8
0
10
-0.622000
20
1.687000
0
VERTEX
8
0
10
-0.675000
20
1.635000
0
VERTEX
8
0
10
-0.675000
20
1.012000
0
VERTEX
8
0
10
0.125000
20
1.012000
0
VERTEX
8
0
10
0.150000
20
1.037000
0
VERTEX
8
0
10
0.150000
20
1.742000
0
VERTEX
8
0
10
0.220000
20
1.812000
0
VERTEX
8
0
10
0.950000
20
1.812000
0
VERTEX
8
0
10
0.975000
20
1.787000
0
VERTEX
8
0
10
1.025000
20
1.787000
0
SEQEND
8
0
0
POLYLINE
8
0
66
1
40
0.040000
41
0.040000
0
VERTEX
8
0
10
-0.250000
20
1.482000
0
VERTEX
8
0
10
-0.250000
20
1.137000
0
SEQEND
8
0
0
POLYLINE
8
0
66
1
40
0.040000
41
0.040000
0
VERTEX
8
0
10
-0.050000
20
1.412000
0
VERTEX
8
0
10
-0.050000
20
1.177000
0
VERTEX
8
0
10
-0.050000
20
1.137000
0
SEQEND
8
0
0
POLYLINE
8
0
66
1
40
0.040000
41
0.040000
0
VERTEX
8
0
10
-0.350000
20
1.687000
0
VERTEX
8
0
10
-0.350000
20
1.137000
0
SEQEND
8
0
0
POLYLINE
8
0
66
1
40
0.040000
41
0.040000
0
VERTEX
8
0
10
-0.450000
20
1.687000
0
VERTEX
8
0
10
-0.450000
20
1.137000
0
SEQEND
8
0
0
POLYLINE
8
0
66
1
40
0.040000
41
0.040000
0
VERTEX
8
0
10
-0.550000
20
1.687000
0
VERTEX
8
0
10
-0.550000
20
1.137000
0
SEQEND
8
0
0
POLYLINE
8
0
66
1
40
0.040000
41
0.040000
0
VERTEX
8
0
10
-1.050000
20
1.637000
0
VERTEX
8
0
10
-1.050000
20
1.552000
0
SEQEND
8
0
0
POLYLINE
8
0
66
1
40
0.040000
41
0.040000
0
VERTEX
8
0
10
-0.150000
20
1.552000
0
VERTEX
8
0
10
-0.150000
20
1.137000
0
SEQEND
8
0
0
POLYLINE
8
0
66
1
40
0.040000
41
0.040000
0
VERTEX
8
0
10
2.775000
20
-0.112000
0
VERTEX
8
0
10
2.950000
20
-0.112000
0
VERTEX
8
0
10
2.950000
20
-1.437000
0
VERTEX
8
0
10
2.525000
20
-1.862000
0
VERTEX
8
0
10
-2.125000
20
-1.862000
0
SEQEND
8
0
0
POLYLINE
8
0
66
1
40
0.040000
41
0.040000
0
VERTEX
8
0
10
2.000000
20
1.937000
0
VERTEX
8
0
10
2.175000
20
1.937000
0
VERTEX
8
0
10
2.175000
20
-0.112000
0
SEQEND
8
0
0
POLYLINE
8
0
66
1
40
0.040000
41
0.040000
0
VERTEX
8
0
10
2.600000
20
-0.487000
0
VERTEX
8
0
10
2.500000
20
-0.487000
0
VERTEX
8
0
10
2.500000
20
-0.512000
0
SEQEND
8
0
0
POLYLINE
8
0
66
1
40
0.040000
41
0.040000
0
VERTEX
8
0
10
2.500000
20
-0.387000
0
VERTEX
8
0
10
2.500000
20
-0.487000
0
SEQEND
8
0
0
POLYLINE
8
0
66
1
40
0.040000
41
0.040000
0
VERTEX
8
0
10
2.200000
20
-0.212000
0
VERTEX
8
0
10
2.200000
20
-0.387000
0
VERTEX
8
0
10
2.250000
20
-0.387000
0
SEQEND
8
0
0
POLYLINE
8
0
66
1
40
0.040000
41
0.040000
0
VERTEX
8
0
10
2.600000
20
-0.212000
0
VERTEX
8
0
10
2.500000
20
-0.212000
0
VERTEX
8
0
10
2.500000
20
-0.087000
0
VERTEX
8
0
10
2.375000
20
-0.087000
0
VERTEX
8
0
10
2.375000
20
0.087000
0
SEQEND
8
0
0
POLYLINE
8
0
66
1
40
0.040000
41
0.040000
0
VERTEX
8
0
10
2.725000
20
-0.237000
0
VERTEX
8
0
10
2.685000
20
-0.237000
0
VERTEX
8
0
10
2.625000
20
-0.297000
0
VERTEX
8
0
10
2.300000
20
-0.297000
0
VERTEX
8
0
10
2.300000
20
-0.112000
0
VERTEX
8
0
10
2.175000
20
-0.112000
0
SEQEND
8
0
0
POLYLINE
8
0
66
1
40
0.040000
41
0.040000
0
VERTEX
8
0
10
2.725000
20
-0.337000
0
VERTEX
8
0
10
2.865000
20
-0.337000
0
SEQEND
8
0
0
POLYLINE
8
0
66
1
40
0.040000
41
0.040000
0
VERTEX
8
0
10
2.275000
20
0.112000
0
VERTEX
8
0
10
2.275000
20
1.687000
0
VERTEX
8
0
10
2.275000
20
1.712000
0
SEQEND
8
0
0
POLYLINE
8
0
66
1
40
0.040000
41
0.040000
0
VERTEX
8
0
10
2.400000
20
0.762000
0
VERTEX
8
0
10
2.400000
20
1.037000
0
VERTEX
8
0
10
2.400000
20
1.587000
0
SEQEND
8
0
0
POLYLINE
8
0
66
1
40
0.040000
41
0.040000
0
VERTEX
8
0
10
2.275000
20
1.712000
0
VERTEX
8
0
10
2.275000
20
2.012000
0
VERTEX
8
0
10
-1.300000
20
2.012000
0
VERTEX
8
0
10
-1.300000
20
1.862000
0
VERTEX
8
0
10
-1.350000
20
1.812000
0
VERTEX
8
0
10
-1.350000
20
1.737000
0
SEQEND
8
0
0
POLYLINE
8
0
66
1
40
0.040000
41
0.040000
0
VERTEX
8
0
10
2.725000
20
0.852000
0
VERTEX
8
0
10
2.725000
20
1.187000
0
SEQEND
8
0
0
POLYLINE
8
0
66
1
40
0.040000
41
0.040000
0
VERTEX
8
0
10
2.440000
20
1.587000
0
VERTEX
8
0
10
2.400000
20
1.587000
0
SEQEND
8
0
0
POLYLINE
8
0
66
1
40
0.040000
41
0.040000
0
VERTEX
8
0
10
2.725000
20
1.587000
0
VERTEX
8
0
10
2.600000
20
1.587000
0
SEQEND
8
0
0
POLYLINE
8
0
66
1
40
0.040000
41
0.040000
0
VERTEX
8
0
10
2.865000
20
0.062000
0
VERTEX
8
0
10
2.865000
20
0.687000
0
VERTEX
8
0
10
2.700000
20
0.687000
0
VERTEX
8
0
10
2.600000
20
0.787000
0
VERTEX
8
0
10
2.600000
20
1.587000
0
VERTEX
8
0
10
2.440000
20
1.587000
0
SEQEND
8
0
0
POLYLINE
8
0
66
1
40
0.040000
41
0.040000
0
VERTEX
8
0
10
2.825000
20
0.852000
0
VERTEX
8
0
10
2.825000
20
1.712000
0
VERTEX
8
0
10
2.275000
20
1.712000
0
SEQEND
8
0
0
INSERT
8
0
2
RPAD
10
2.600000
20
-1.187000
41
0.080000
42
0.080000
50
90.000000
0
CIRCLE
8
0
10
2.600000
20
-1.187000
40
0.025000
0
INSERT
8
0
2
RPAD
10
2.600000
20
-1.087000
41
0.080000
42
0.080000
50
90.000000
0
CIRCLE
8
0
10
2.600000
20
-1.087000
40
0.025000
0
INSERT
8
0
2
RPAD
10
2.600000
20
-0.987000
41
0.080000
42
0.080000
50
90.000000
0
CIRCLE
8
0
10
2.600000
20
-0.987000
40
0.025000
0
INSERT
8
0
2
RPAD
10
2.600000
20
-0.887000
41
0.080000
42
0.080000
50
90.000000
0
CIRCLE
8
0
10
2.600000
20
-0.887000
40
0.025000
0
INSERT
8
0
2
RPAD
10
2.600000
20
-0.787000
41
0.080000
42
0.080000
50
90.000000
0
CIRCLE
8
0
10
2.600000
20
-0.787000
40
0.025000
0
INSERT
8
0
2
RPAD
10
2.600000
20
-0.687000
41
0.080000
42
0.080000
50
90.000000
0
CIRCLE
8
0
10
2.600000
20
-0.687000
40
0.025000
0
INSERT
8
0
2
RPAD
10
2.600000
20
-0.587000
41
0.080000
42
0.080000
50
90.000000
0
CIRCLE
8
0
10
2.600000
20
-0.587000
40
0.025000
0
INSERT
8
0
2
RPAD
10
2.600000
20
-0.487000
41
0.080000
42
0.080000
50
90.000000
0
CIRCLE
8
0
10
2.600000
20
-0.487000
40
0.025000
0
INSERT
8
0
2
EPAD
10
2.500000
20
-0.387000
41
0.080000
42
0.080000
0
CIRCLE
8
0
10
2.500000
20
-0.387000
40
0.025000
0
INSERT
8
0
2
EPAD
10
2.400000
20
-0.387000
41
0.080000
42
0.080000
0
CIRCLE
8
0
10
2.400000
20
-0.387000
40
0.025000
0
INSERT
8
0
2
EPAD
10
2.500000
20
-0.512000
41
0.070000
42
0.070000
0
CIRCLE
8
0
10
2.500000
20
-0.512000
40
0.025000
0
INSERT
8
0
2
EPAD
10
2.100000
20
-0.512000
41
0.070000
42
0.070000
0
CIRCLE
8
0
10
2.100000
20
-0.512000
40
0.025000
0
INSERT
8
0
2
RPAD
10
2.375000
20
-0.987000
41
0.080000
42
0.080000
50
90.000000
0
CIRCLE
8
0
10
2.375000
20
-0.987000
40
0.025000
0
INSERT
8
0
2
RPAD
10
2.375000
20
-0.887000
41
0.080000
42
0.080000
50
90.000000
0
CIRCLE
8
0
10
2.375000
20
-0.887000
40
0.025000
0
INSERT
8
0
2
RPAD
10
2.375000
20
-0.787000
41
0.080000
42
0.080000
50
90.000000
0
CIRCLE
8
0
10
2.375000
20
-0.787000
40
0.025000
0
INSERT
8
0
2
RPAD
10
-0.950000
20
1.487000
41
0.080000
42
0.080000
50
0.000000
0
INSERT
8
0
2
EPAD
10
-2.850000
20
1.737000
41
0.150000
42
0.150000
0
CIRCLE
8
0
10
-2.850000
20
1.737000
40
0.030000
0
INSERT
8
0
2
EPAD
10
-0.950000
20
-1.462000
41
0.150000
42
0.150000
0
CIRCLE
8
0
10
-0.950000
20
-1.462000
40
0.030000
0
INSERT
8
0
2
EPAD
10
-2.850000
20
-1.462000
41
0.150000
42
0.150000
0
CIRCLE
8
0
10
-2.850000
20
-1.462000
40
0.030000
0
INSERT
8
0
2
RPAD
10
-0.950000
20
1.637000
41
0.080000
42
0.080000
50
180.000000
0
CIRCLE
8
0
10
-0.950000
20
1.637000
40
0.025000
0
INSERT
8
0
2
RPAD
10
-1.050000
20
1.637000
41
0.080000
42
0.080000
50
180.000000
0
CIRCLE
8
0
10
-1.050000
20
1.637000
40
0.025000
0
INSERT
8
0
2
RPAD
10
-1.150000
20
1.637000
41
0.080000
42
0.080000
50
180.000000
0
CIRCLE
8
0
10
-1.150000
20
1.637000
40
0.025000
0
INSERT
8
0
2
RPAD
10
-1.250000
20
1.637000
41
0.080000
42
0.080000
50
180.000000
0
CIRCLE
8
0
10
-1.250000
20
1.637000
40
0.025000
0
INSERT
8
0
2
RPAD
10
-1.350000
20
1.637000
41
0.080000
42
0.080000
50
180.000000
0
CIRCLE
8
0
10
-1.350000
20
1.637000
40
0.025000
0
INSERT
8
0
2
RPAD
10
-1.450000
20
1.637000
41
0.080000
42
0.080000
50
180.000000
0
CIRCLE
8
0
10
-1.450000
20
1.637000
40
0.025000
0
INSERT
8
0
2
RPAD
10
-1.550000
20
1.637000
41
0.080000
42
0.080000
50
180.000000
0
CIRCLE
8
0
10
-1.550000
20
1.637000
40
0.025000
0
INSERT
8
0
2
RPAD
10
-1.650000
20
1.637000
41
0.080000
42
0.080000
50
180.000000
0
CIRCLE
8
0
10
-1.650000
20
1.637000
40
0.025000
0
INSERT
8
0
2
RPAD
10
-1.750000
20
1.637000
41
0.080000
42
0.080000
50
180.000000
0
CIRCLE
8
0
10
-1.750000
20
1.637000
40
0.025000
0
INSERT
8
0
2
RPAD
10
-1.850000
20
1.637000
41
0.080000
42
0.080000
50
180.000000
0
CIRCLE
8
0
10
-1.850000
20
1.637000
40
0.025000
0
INSERT
8
0
2
RPAD
10
-1.950000
20
1.637000
41
0.080000
42
0.080000
50
180.000000
0
CIRCLE
8
0
10
-1.950000
20
1.637000
40
0.025000
0
INSERT
8
0
2
RPAD
10
-2.050000
20
1.637000
41
0.080000
42
0.080000
50
180.000000
0
CIRCLE
8
0
10
-2.050000
20
1.637000
40
0.025000
0
INSERT
8
0
2
RPAD
10
-2.150000
20
1.637000
41
0.080000
42
0.080000
50
180.000000
0
CIRCLE
8
0
10
-2.150000
20
1.637000
40
0.025000
0
INSERT
8
0
2
RPAD
10
-2.150000
20
1.737000
41
0.080000
42
0.080000
50
180.000000
0
CIRCLE
8
0
10
-2.150000
20
1.737000
40
0.025000
0
INSERT
8
0
2
RPAD
10
-2.050000
20
1.737000
41
0.080000
42
0.080000
50
180.000000
0
CIRCLE
8
0
10
-2.050000
20
1.737000
40
0.025000
0
INSERT
8
0
2
RPAD
10
-1.950000
20
1.737000
41
0.080000
42
0.080000
50
180.000000
0
CIRCLE
8
0
10
-1.950000
20
1.737000
40
0.025000
0
INSERT
8
0
2
RPAD
10
-1.850000
20
1.737000
41
0.080000
42
0.080000
50
180.000000
0
CIRCLE
8
0
10
-1.850000
20
1.737000
40
0.025000
0
INSERT
8
0
2
RPAD
10
-1.750000
20
1.737000
41
0.080000
42
0.080000
50
180.000000
0
CIRCLE
8
0
10
-1.750000
20
1.737000
40
0.025000
0
INSERT
8
0
2
RPAD
10
-1.650000
20
1.737000
41
0.080000
42
0.080000
50
180.000000
0
CIRCLE
8
0
10
-1.650000
20
1.737000
40
0.025000
0
INSERT
8
0
2
RPAD
10
-1.550000
20
1.737000
41
0.080000
42
0.080000
50
180.000000
0
CIRCLE
8
0
10
-1.550000
20
1.737000
40
0.025000
0
INSERT
8
0
2
RPAD
10
-1.450000
20
1.737000
41
0.080000
42
0.080000
50
180.000000
0
CIRCLE
8
0
10
-1.450000
20
1.737000
40
0.025000
0
INSERT
8
0
2
RPAD
10
-1.350000
20
1.737000
41
0.080000
42
0.080000
50
180.000000
0
CIRCLE
8
0
10
-1.350000
20
1.737000
40
0.025000
0
INSERT
8
0
2
RPAD
10
-1.250000
20
1.737000
41
0.080000
42
0.080000
50
180.000000
0
CIRCLE
8
0
10
-1.250000
20
1.737000
40
0.025000
0
INSERT
8
0
2
RPAD
10
-1.150000
20
1.737000
41
0.080000
42
0.080000
50
180.000000
0
CIRCLE
8
0
10
-1.150000
20
1.737000
40
0.025000
0
INSERT
8
0
2
RPAD
10
-1.050000
20
1.737000
41
0.080000
42
0.080000
50
180.000000
0
CIRCLE
8
0
10
-1.050000
20
1.737000
40
0.025000
0
INSERT
8
0
2
RPAD
10
-0.950000
20
1.737000
41
0.080000
42
0.080000
50
180.000000
0
CIRCLE
8
0
10
-0.950000
20
1.737000
40
0.025000
0
INSERT
8
0
2
RPAD
10
-2.250000
20
1.737000
41
0.080000
42
0.080000
50
180.000000
0
CIRCLE
8
0
10
-2.250000
20
1.737000
40
0.025000
0
INSERT
8
0
2
RPAD
10
-2.350000
20
1.737000
41
0.080000
42
0.080000
50
180.000000
0
CIRCLE
8
0
10
-2.350000
20
1.737000
40
0.025000
0
INSERT
8
0
2
RPAD
10
-2.250000
20
1.637000
41
0.080000
42
0.080000
50
180.000000
0
CIRCLE
8
0
10
-2.250000
20
1.637000
40
0.025000
0
INSERT
8
0
2
RPAD
10
-2.350000
20
1.637000
41
0.080000
42
0.080000
50
180.000000
0
CIRCLE
8
0
10
-2.350000
20
1.637000
40
0.025000
0
INSERT
8
0
2
RPAD
10
-2.450000
20
1.737000
41
0.080000
42
0.080000
50
180.000000
0
CIRCLE
8
0
10
-2.450000
20
1.737000
40
0.025000
0
INSERT
8
0
2
RPAD
10
-2.450000
20
1.637000
41
0.080000
42
0.080000
50
180.000000
0
CIRCLE
8
0
10
-2.450000
20
1.637000
40
0.025000
0
INSERT
8
0
2
RPAD
10
-2.550000
20
1.637000
41
0.080000
42
0.080000
50
180.000000
0
CIRCLE
8
0
10
-2.550000
20
1.637000
40
0.025000
0
INSERT
8
0
2
RPAD
10
-2.550000
20
1.737000
41
0.080000
42
0.080000
50
180.000000
0
CIRCLE
8
0
10
-2.550000
20
1.737000
40
0.025000
0
INSERT
8
0
2
RPAD
10
-0.950000
20
1.337000
41
0.080000
42
0.080000
50
-90.000000
0
CIRCLE
8
0
10
-0.950000
20
1.337000
40
0.025000
0
INSERT
8
0
2
RPAD
10
-0.950000
20
1.237000
41
0.080000
42
0.080000
50
-90.000000
0
CIRCLE
8
0
10
-0.950000
20
1.237000
40
0.025000
0
INSERT
8
0
2
RPAD
10
-0.950000
20
1.137000
41
0.080000
42
0.080000
50
-90.000000
0
CIRCLE
8
0
10
-0.950000
20
1.137000
40
0.025000
0
INSERT
8
0
2
RPAD
10
-0.950000
20
1.037000
41
0.080000
42
0.080000
50
-90.000000
0
CIRCLE
8
0
10
-0.950000
20
1.037000
40
0.025000
0
INSERT
8
0
2
RPAD
10
-0.950000
20
0.937000
41
0.080000
42
0.080000
50
-90.000000
0
CIRCLE
8
0
10
-0.950000
20
0.937000
40
0.025000
0
INSERT
8
0
2
RPAD
10
-0.950000
20
0.837000
41
0.080000
42
0.080000
50
-90.000000
0
CIRCLE
8
0
10
-0.950000
20
0.837000
40
0.025000
0
INSERT
8
0
2
RPAD
10
-0.950000
20
0.737000
41
0.080000
42
0.080000
50
-90.000000
0
CIRCLE
8
0
10
-0.950000
20
0.737000
40
0.025000
0
INSERT
8
0
2
RPAD
10
-0.950000
20
0.637000
41
0.080000
42
0.080000
50
-90.000000
0
CIRCLE
8
0
10
-0.950000
20
0.637000
40
0.025000
0
INSERT
8
0
2
RPAD
10
-0.950000
20
0.437000
41
0.080000
42
0.080000
50
-90.000000
0
CIRCLE
8
0
10
-0.950000
20
0.437000
40
0.025000
0
INSERT
8
0
2
RPAD
10
-0.950000
20
0.337000
41
0.080000
42
0.080000
50
-90.000000
0
CIRCLE
8
0
10
-0.950000
20
0.337000
40
0.025000
0
INSERT
8
0
2
RPAD
10
-0.950000
20
0.237000
41
0.080000
42
0.080000
50
-90.000000
0
CIRCLE
8
0
10
-0.950000
20
0.237000
40
0.025000
0
INSERT
8
0
2
RPAD
10
-0.950000
20
0.137000
41
0.080000
42
0.080000
50
-90.000000
0
CIRCLE
8
0
10
-0.950000
20
0.137000
40
0.025000
0
INSERT
8
0
2
RPAD
10
-0.950000
20
0.037000
41
0.080000
42
0.080000
50
-90.000000
0
CIRCLE
8
0
10
-0.950000
20
0.037000
40
0.025000
0
INSERT
8
0
2
RPAD
10
-0.950000
20
-0.062000
41
0.080000
42
0.080000
50
-90.000000
0
CIRCLE
8
0
10
-0.950000
20
-0.062000
40
0.025000
0
INSERT
8
0
2
RPAD
10
-0.950000
20
-0.162000
41
0.080000
42
0.080000
50
-90.000000
0
CIRCLE
8
0
10
-0.950000
20
-0.162000
40
0.025000
0
INSERT
8
0
2
RPAD
10
-0.950000
20
-0.262000
41
0.080000
42
0.080000
50
-90.000000
0
CIRCLE
8
0
10
-0.950000
20
-0.262000
40
0.025000
0
INSERT
8
0
2
RPAD
10
-0.950000
20
-0.412000
41
0.080000
42
0.080000
50
-90.000000
0
CIRCLE
8
0
10
-0.950000
20
-0.412000
40
0.025000
0
INSERT
8
0
2
RPAD
10
-0.950000
20
-0.512000
41
0.080000
42
0.080000
50
-90.000000
0
CIRCLE
8
0
10
-0.950000
20
-0.512000
40
0.025000
0
INSERT
8
0
2
RPAD
10
-0.950000
20
-0.612000
41
0.080000
42
0.080000
50
-90.000000
0
CIRCLE
8
0
10
-0.950000
20
-0.612000
40
0.025000
0
INSERT
8
0
2
RPAD
10
-0.950000
20
-0.712000
41
0.080000
42
0.080000
50
-90.000000
0
CIRCLE
8
0
10
-0.950000
20
-0.712000
40
0.025000
0
INSERT
8
0
2
RPAD
10
-0.950000
20
-0.812000
41
0.080000
42
0.080000
50
-90.000000
0
CIRCLE
8
0
10
-0.950000
20
-0.812000
40
0.025000
0
INSERT
8
0
2
RPAD
10
-0.950000
20
-0.912000
41
0.080000
42
0.080000
50
-90.000000
0
CIRCLE
8
0
10
-0.950000
20
-0.912000
40
0.025000
0
INSERT
8
0
2
RPAD
10
-0.950000
20
-1.012000
41
0.080000
42
0.080000
50
-90.000000
0
CIRCLE
8
0
10
-0.950000
20
-1.012000
40
0.025000
0
INSERT
8
0
2
RPAD
10
-0.950000
20
-1.112000
41
0.080000
42
0.080000
50
-90.000000
0
CIRCLE
8
0
10
-0.950000
20
-1.112000
40
0.025000
0
INSERT
8
0
2
RPAD
10
-2.850000
20
-0.262000
41
0.080000
42
0.080000
50
-90.000000
0
CIRCLE
8
0
10
-2.850000
20
-0.262000
40
0.025000
0
INSERT
8
0
2
RPAD
10
-2.850000
20
-0.362000
41
0.080000
42
0.080000
50
-90.000000
0
CIRCLE
8
0
10
-2.850000
20
-0.362000
40
0.025000
0
INSERT
8
0
2
RPAD
10
-2.850000
20
-0.462000
41
0.080000
42
0.080000
50
-90.000000
0
CIRCLE
8
0
10
-2.850000
20
-0.462000
40
0.025000
0
INSERT
8
0
2
RPAD
10
-2.850000
20
-0.562000
41
0.080000
42
0.080000
50
-90.000000
0
CIRCLE
8
0
10
-2.850000
20
-0.562000
40
0.025000
0
INSERT
8
0
2
RPAD
10
-2.850000
20
-0.662000
41
0.080000
42
0.080000
50
-90.000000
0
CIRCLE
8
0
10
-2.850000
20
-0.662000
40
0.025000
0
INSERT
8
0
2
RPAD
10
-2.850000
20
-0.762000
41
0.080000
42
0.080000
50
-90.000000
0
CIRCLE
8
0
10
-2.850000
20
-0.762000
40
0.025000
0
INSERT
8
0
2
RPAD
10
-2.850000
20
0.637000
41
0.080000
42
0.080000
50
-90.000000
0
CIRCLE
8
0
10
-2.850000
20
0.637000
40
0.025000
0
INSERT
8
0
2
RPAD
10
-2.850000
20
0.537000
41
0.080000
42
0.080000
50
-90.000000
0
CIRCLE
8
0
10
-2.850000
20
0.537000
40
0.025000
0
INSERT
8
0
2
RPAD
10
-2.850000
20
0.437000
41
0.080000
42
0.080000
50
-90.000000
0
CIRCLE
8
0
10
-2.850000
20
0.437000
40
0.025000
0
INSERT
8
0
2
RPAD
10
-2.850000
20
0.337000
41
0.080000
42
0.080000
50
-90.000000
0
CIRCLE
8
0
10
-2.850000
20
0.337000
40
0.025000
0
INSERT
8
0
2
RPAD
10
-2.850000
20
0.237000
41
0.080000
42
0.080000
50
-90.000000
0
CIRCLE
8
0
10
-2.850000
20
0.237000
40
0.025000
0
INSERT
8
0
2
RPAD
10
-2.850000
20
0.137000
41
0.080000
42
0.080000
50
-90.000000
0
CIRCLE
8
0
10
-2.850000
20
0.137000
40
0.025000
0
INSERT
8
0
2
RPAD
10
-2.850000
20
0.037000
41
0.080000
42
0.080000
50
-90.000000
0
CIRCLE
8
0
10
-2.850000
20
0.037000
40
0.025000
0
INSERT
8
0
2
RPAD
10
-2.850000
20
-0.062000
41
0.080000
42
0.080000
50
-90.000000
0
CIRCLE
8
0
10
-2.850000
20
-0.062000
40
0.025000
0
INSERT
8
0
2
RPAD
10
-2.850000
20
1.537000
41
0.080000
42
0.080000
50
-90.000000
0
CIRCLE
8
0
10
-2.850000
20
1.537000
40
0.025000
0
INSERT
8
0
2
RPAD
10
-2.850000
20
1.437000
41
0.080000
42
0.080000
50
-90.000000
0
CIRCLE
8
0
10
-2.850000
20
1.437000
40
0.025000
0
INSERT
8
0
2
RPAD
10
-2.850000
20
1.337000
41
0.080000
42
0.080000
50
-90.000000
0
CIRCLE
8
0
10
-2.850000
20
1.337000
40
0.025000
0
INSERT
8
0
2
RPAD
10
-2.850000
20
1.237000
41
0.080000
42
0.080000
50
-90.000000
0
CIRCLE
8
0
10
-2.850000
20
1.237000
40
0.025000
0
INSERT
8
0
2
RPAD
10
-2.850000
20
1.137000
41
0.080000
42
0.080000
50
-90.000000
0
CIRCLE
8
0
10
-2.850000
20
1.137000
40
0.025000
0
INSERT
8
0
2
RPAD
10
-2.850000
20
1.037000
41
0.080000
42
0.080000
50
-90.000000
0
CIRCLE
8
0
10
-2.850000
20
1.037000
40
0.025000
0
INSERT
8
0
2
RPAD
10
-2.850000
20
0.937000
41
0.080000
42
0.080000
50
-90.000000
0
CIRCLE
8
0
10
-2.850000
20
0.937000
40
0.025000
0
INSERT
8
0
2
RPAD
10
-2.850000
20
0.837000
41
0.080000
42
0.080000
50
-90.000000
0
CIRCLE
8
0
10
-2.850000
20
0.837000
40
0.025000
0
INSERT
8
0
2
RPAD
10
-2.650000
20
1.737000
41
0.080000
42
0.080000
50
-90.000000
0
CIRCLE
8
0
10
-2.650000
20
1.737000
40
0.025000
0
INSERT
8
0
2
RPAD
10
-2.650000
20
1.637000
41
0.080000
42
0.080000
50
-90.000000
0
CIRCLE
8
0
10
-2.650000
20
1.637000
40
0.025000
0
INSERT
8
0
2
RPAD
10
2.600000
20
-0.112000
41
0.080000
42
0.080000
50
90.000000
0
CIRCLE
8
0
10
2.600000
20
-0.112000
40
0.025000
0
INSERT
8
0
2
RPAD
10
2.600000
20
-0.012000
41
0.080000
42
0.080000
50
90.000000
0
CIRCLE
8
0
10
2.600000
20
-0.012000
40
0.025000
0
INSERT
8
0
2
RPAD
10
2.600000
20
0.087000
41
0.080000
42
0.080000
50
90.000000
0
CIRCLE
8
0
10
2.600000
20
0.087000
40
0.025000
0
INSERT
8
0
2
RPAD
10
2.600000
20
0.187000
41
0.080000
42
0.080000
50
90.000000
0
CIRCLE
8
0
10
2.600000
20
0.187000
40
0.025000
0
INSERT
8
0
2
RPAD
10
2.600000
20
0.287000
41
0.080000
42
0.080000
50
90.000000
0
CIRCLE
8
0
10
2.600000
20
0.287000
40
0.025000
0
INSERT
8
0
2
RPAD
10
2.600000
20
0.387000
41
0.080000
42
0.080000
50
90.000000
0
CIRCLE
8
0
10
2.600000
20
0.387000
40
0.025000
0
INSERT
8
0
2
RPAD
10
2.600000
20
0.487000
41
0.080000
42
0.080000
50
90.000000
0
CIRCLE
8
0
10
2.600000
20
0.487000
40
0.025000
0
INSERT
8
0
2
RPAD
10
2.600000
20
0.587000
41
0.080000
42
0.080000
50
90.000000
0
CIRCLE
8
0
10
2.600000
20
0.587000
40
0.025000
0
INSERT
8
0
2
EPAD
10
2.500000
20
0.587000
41
0.070000
42
0.070000
0
CIRCLE
8
0
10
2.500000
20
0.587000
40
0.025000
0
INSERT
8
0
2
EPAD
10
2.100000
20
0.587000
41
0.070000
42
0.070000
0
CIRCLE
8
0
10
2.100000
20
0.587000
40
0.025000
0
INSERT
8
0
2
EPAD
10
2.500000
20
0.762000
41
0.080000
42
0.080000
0
CIRCLE
8
0
10
2.500000
20
0.762000
40
0.025000
0
INSERT
8
0
2
EPAD
10
2.400000
20
0.762000
41
0.080000
42
0.080000
0
CIRCLE
8
0
10
2.400000
20
0.762000
40
0.025000
0
INSERT
8
0
2
RPAD
10
2.375000
20
0.087000
41
0.080000
42
0.080000
50
90.000000
0
CIRCLE
8
0
10
2.375000
20
0.087000
40
0.025000
0
INSERT
8
0
2
RPAD
10
2.375000
20
0.187000
41
0.080000
42
0.080000
50
90.000000
0
CIRCLE
8
0
10
2.375000
20
0.187000
40
0.025000
0
INSERT
8
0
2
RPAD
10
2.375000
20
0.287000
41
0.080000
42
0.080000
50
90.000000
0
CIRCLE
8
0
10
2.375000
20
0.287000
40
0.025000
0
INSERT
8
0
2
EPAD
10
-2.375000
20
-1.437000
41
0.080000
42
0.080000
0
CIRCLE
8
0
10
-2.375000
20
-1.437000
40
0.010000
0
INSERT
8
0
2
EPAD
10
-2.125000
20
-1.387000
41
0.080000
42
0.080000
0
CIRCLE
8
0
10
-2.125000
20
-1.387000
40
0.010000
0
INSERT
8
0
2
EPAD
10
-2.125000
20
-1.862000
41
0.080000
42
0.080000
0
CIRCLE
8
0
10
-2.125000
20
-1.862000
40
0.010000
0
INSERT
8
0
2
EPAD
10
-2.375000
20
-1.712000
41
0.080000
42
0.080000
0
CIRCLE
8
0
10
-2.375000
20
-1.712000
40
0.010000
0
INSERT
8
0
2
RPAD
10
-0.400000
20
-1.337000
41
0.080000
42
0.080000
50
-90.000000
0
CIRCLE
8
0
10
-0.400000
20
-1.337000
40
0.025000
0
INSERT
8
0
2
RPAD
10
-0.400000
20
-1.437000
41
0.080000
42
0.080000
50
-90.000000
0
CIRCLE
8
0
10
-0.400000
20
-1.437000
40
0.025000
0
INSERT
8
0
2
RPAD
10
-0.400000
20
-1.537000
41
0.080000
42
0.080000
50
-90.000000
0
CIRCLE
8
0
10
-0.400000
20
-1.537000
40
0.025000
0
INSERT
8
0
2
EPAD
10
0.150000
20
-1.562000
41
0.070000
42
0.070000
0
CIRCLE
8
0
10
0.150000
20
-1.562000
40
0.025000
0
INSERT
8
0
2
EPAD
10
0.150000
20
-1.162000
41
0.070000
42
0.070000
0
CIRCLE
8
0
10
0.150000
20
-1.162000
40
0.025000
0
INSERT
8
0
2
RPAD
10
-0.650000
20
-1.437000
41
0.080000
42
0.080000
50
0.000000
0
CIRCLE
8
0
10
-0.650000
20
-1.437000
40
0.025000
0
INSERT
8
0
2
RPAD
10
-0.550000
20
-1.437000
41
0.080000
42
0.080000
50
0.000000
0
CIRCLE
8
0
10
-0.550000
20
-1.437000
40
0.025000
0
INSERT
8
0
2
EPAD
10
1.850000
20
-1.487000
41
0.080000
42
0.080000
0
CIRCLE
8
0
10
1.850000
20
-1.487000
40
0.010000
0
INSERT
8
0
2
EPAD
10
1.950000
20
-1.487000
41
0.080000
42
0.080000
0
CIRCLE
8
0
10
1.950000
20
-1.487000
40
0.010000
0
INSERT
8
0
2
EPAD
10
2.050000
20
-1.487000
41
0.080000
42
0.080000
0
CIRCLE
8
0
10
2.050000
20
-1.487000
40
0.010000
0
INSERT
8
0
2
EPAD
10
0.875000
20
-1.487000
41
0.080000
42
0.080000
0
CIRCLE
8
0
10
0.875000
20
-1.487000
40
0.010000
0
INSERT
8
0
2
EPAD
10
0.975000
20
-1.487000
41
0.080000
42
0.080000
0
CIRCLE
8
0
10
0.975000
20
-1.487000
40
0.010000
0
INSERT
8
0
2
EPAD
10
1.075000
20
-1.487000
41
0.080000
42
0.080000
0
CIRCLE
8
0
10
1.075000
20
-1.487000
40
0.010000
0
INSERT
8
0
2
EPAD
10
0.250000
20
-1.637000
41
0.080000
42
0.080000
0
CIRCLE
8
0
10
0.250000
20
-1.637000
40
0.010000
0
INSERT
8
0
2
EPAD
10
0.800000
20
-1.087000
41
0.080000
42
0.080000
0
CIRCLE
8
0
10
0.800000
20
-1.087000
40
0.010000
0
INSERT
8
0
2
EPAD
10
2.300000
20
-1.112000
41
0.080000
42
0.080000
0
CIRCLE
8
0
10
2.300000
20
-1.112000
40
0.010000
0
INSERT
8
0
2
EPAD
10
2.000000
20
-1.112000
41
0.080000
42
0.080000
0
CIRCLE
8
0
10
2.000000
20
-1.112000
40
0.010000
0
INSERT
8
0
2
EPAD
10
-2.000000
20
-1.362000
41
0.080000
42
0.080000
0
CIRCLE
8
0
10
-2.000000
20
-1.362000
40
0.010000
0
INSERT
8
0
2
EPAD
10
-2.000000
20
-1.612000
41
0.080000
42
0.080000
0
CIRCLE
8
0
10
-2.000000
20
-1.612000
40
0.010000
0
INSERT
8
0
2
EPAD
10
2.075000
20
-1.212000
41
0.070000
42
0.070000
0
CIRCLE
8
0
10
2.075000
20
-1.212000
40
0.025000
0
INSERT
8
0
2
EPAD
10
2.475000
20
-1.212000
41
0.070000
42
0.070000
0
CIRCLE
8
0
10
2.475000
20
-1.212000
40
0.025000
0
INSERT
8
0
2
RPAD
10
2.625000
20
-1.412000
41
0.080000
42
0.080000
50
180.000000
0
CIRCLE
8
0
10
2.625000
20
-1.412000
40
0.025000
0
INSERT
8
0
2
RPAD
10
2.525000
20
-1.412000
41
0.080000
42
0.080000
50
180.000000
0
CIRCLE
8
0
10
2.525000
20
-1.412000
40
0.025000
0
INSERT
8
0
2
EPAD
10
-0.800000
20
1.037000
41
0.080000
42
0.080000
0
CIRCLE
8
0
10
-0.800000
20
1.037000
40
0.010000
0
INSERT
8
0
2
EPAD
10
-0.800000
20
-1.512000
41
0.080000
42
0.080000
0
CIRCLE
8
0
10
-0.800000
20
-1.512000
40
0.010000
0
INSERT
8
0
2
EPAD
10
2.400000
20
-0.587000
41
0.080000
42
0.080000
0
CIRCLE
8
0
10
2.400000
20
-0.587000
40
0.010000
0
INSERT
8
0
2
EPAD
10
1.900000
20
1.587000
41
0.080000
42
0.080000
0
CIRCLE
8
0
10
1.900000
20
1.587000
40
0.010000
0
INSERT
8
0
2
EPAD
10
1.900000
20
-0.587000
41
0.080000
42
0.080000
0
CIRCLE
8
0
10
1.900000
20
-0.587000
40
0.010000
0
INSERT
8
0
2
EPAD
10
2.875000
20
1.937000
41
0.150000
42
0.150000
0
CIRCLE
8
0
10
2.875000
20
1.937000
40
0.030000
0
INSERT
8
0
2
EPAD
10
-2.875000
20
1.937000
41
0.150000
42
0.150000
0
CIRCLE
8
0
10
-2.875000
20
1.937000
40
0.030000
0
INSERT
8
0
2
EPAD
10
-2.850000
20
-1.787000
41
0.150000
42
0.150000
0
CIRCLE
8
0
10
-2.850000
20
-1.787000
40
0.030000
0
INSERT
8
0
2
RPAD
10
-0.700000
20
-0.887000
41
0.080000
42
0.080000
50
0.000000
0
CIRCLE
8
0
10
-0.700000
20
-0.887000
40
0.025000
0
INSERT
8
0
2
RPAD
10
-0.600000
20
-0.887000
41
0.080000
42
0.080000
50
0.000000
0
CIRCLE
8
0
10
-0.600000
20
-0.887000
40
0.025000
0
INSERT
8
0
2
RPAD
10
-0.500000
20
-0.887000
41
0.080000
42
0.080000
50
0.000000
0
CIRCLE
8
0
10
-0.500000
20
-0.887000
40
0.025000
0
INSERT
8
0
2
RPAD
10
-0.700000
20
-0.787000
41
0.080000
42
0.080000
50
0.000000
0
CIRCLE
8
0
10
-0.700000
20
-0.787000
40
0.025000
0
INSERT
8
0
2
RPAD
10
-0.600000
20
-0.787000
41
0.080000
42
0.080000
50
0.000000
0
CIRCLE
8
0
10
-0.600000
20
-0.787000
40
0.025000
0
INSERT
8
0
2
RPAD
10
-0.500000
20
-0.787000
41
0.080000
42
0.080000
50
0.000000
0
CIRCLE
8
0
10
-0.500000
20
-0.787000
40
0.025000
0
INSERT
8
0
2
RPAD
10
-0.700000
20
-0.687000
41
0.080000
42
0.080000
50
0.000000
0
CIRCLE
8
0
10
-0.700000
20
-0.687000
40
0.025000
0
INSERT
8
0
2
RPAD
10
-0.600000
20
-0.687000
41
0.080000
42
0.080000
50
0.000000
0
CIRCLE
8
0
10
-0.600000
20
-0.687000
40
0.025000
0
INSERT
8
0
2
RPAD
10
-0.500000
20
-0.687000
41
0.080000
42
0.080000
50
0.000000
0
CIRCLE
8
0
10
-0.500000
20
-0.687000
40
0.025000
0
INSERT
8
0
2
RPAD
10
-0.700000
20
-0.587000
41
0.080000
42
0.080000
50
0.000000
0
CIRCLE
8
0
10
-0.700000
20
-0.587000
40
0.025000
0
INSERT
8
0
2
RPAD
10
-0.600000
20
-0.587000
41
0.080000
42
0.080000
50
0.000000
0
CIRCLE
8
0
10
-0.600000
20
-0.587000
40
0.025000
0
INSERT
8
0
2
RPAD
10
-0.500000
20
-0.587000
41
0.080000
42
0.080000
50
0.000000
0
CIRCLE
8
0
10
-0.500000
20
-0.587000
40
0.025000
0
INSERT
8
0
2
RPAD
10
-0.700000
20
-0.487000
41
0.080000
42
0.080000
50
0.000000
0
CIRCLE
8
0
10
-0.700000
20
-0.487000
40
0.025000
0
INSERT
8
0
2
RPAD
10
-0.600000
20
-0.487000
41
0.080000
42
0.080000
50
0.000000
0
CIRCLE
8
0
10
-0.600000
20
-0.487000
40
0.025000
0
INSERT
8
0
2
RPAD
10
-0.500000
20
-0.487000
41
0.080000
42
0.080000
50
0.000000
0
CIRCLE
8
0
10
-0.500000
20
-0.487000
40
0.025000
0
INSERT
8
0
2
RPAD
10
-0.700000
20
-0.387000
41
0.080000
42
0.080000
50
0.000000
0
CIRCLE
8
0
10
-0.700000
20
-0.387000
40
0.025000
0
INSERT
8
0
2
RPAD
10
-0.600000
20
-0.387000
41
0.080000
42
0.080000
50
0.000000
0
CIRCLE
8
0
10
-0.600000
20
-0.387000
40
0.025000
0
INSERT
8
0
2
RPAD
10
-0.500000
20
-0.387000
41
0.080000
42
0.080000
50
0.000000
0
CIRCLE
8
0
10
-0.500000
20
-0.387000
40
0.025000
0
INSERT
8
0
2
RPAD
10
1.025000
20
1.037000
41
0.080000
42
0.080000
50
180.000000
0
CIRCLE
8
0
10
1.025000
20
1.037000
40
0.025000
0
INSERT
8
0
2
RPAD
10
0.925000
20
1.037000
41
0.080000
42
0.080000
50
180.000000
0
CIRCLE
8
0
10
0.925000
20
1.037000
40
0.025000
0
INSERT
8
0
2
RPAD
10
0.825000
20
1.037000
41
0.080000
42
0.080000
50
180.000000
0
CIRCLE
8
0
10
0.825000
20
1.037000
40
0.025000
0
INSERT
8
0
2
RPAD
10
0.725000
20
1.037000
41
0.080000
42
0.080000
50
180.000000
0
CIRCLE
8
0
10
0.725000
20
1.037000
40
0.025000
0
INSERT
8
0
2
RPAD
10
0.625000
20
1.037000
41
0.080000
42
0.080000
50
180.000000
0
CIRCLE
8
0
10
0.625000
20
1.037000
40
0.025000
0
INSERT
8
0
2
RPAD
10
0.525000
20
1.037000
41
0.080000
42
0.080000
50
180.000000
0
CIRCLE
8
0
10
0.525000
20
1.037000
40
0.025000
0
INSERT
8
0
2
RPAD
10
0.425000
20
1.037000
41
0.080000
42
0.080000
50
180.000000
0
CIRCLE
8
0
10
0.425000
20
1.037000
40
0.025000
0
INSERT
8
0
2
RPAD
10
0.325000
20
1.037000
41
0.080000
42
0.080000
50
180.000000
0
CIRCLE
8
0
10
0.325000
20
1.037000
40
0.025000
0
INSERT
8
0
2
RPAD
10
0.325000
20
1.637000
41
0.080000
42
0.080000
50
0.000000
0
CIRCLE
8
0
10
0.325000
20
1.637000
40
0.025000
0
INSERT
8
0
2
RPAD
10
0.425000
20
1.637000
41
0.080000
42
0.080000
50
0.000000
0
CIRCLE
8
0
10
0.425000
20
1.637000
40
0.025000
0
INSERT
8
0
2
RPAD
10
0.525000
20
1.637000
41
0.080000
42
0.080000
50
0.000000
0
CIRCLE
8
0
10
0.525000
20
1.637000
40
0.025000
0
INSERT
8
0
2
RPAD
10
0.625000
20
1.637000
41
0.080000
42
0.080000
50
0.000000
0
CIRCLE
8
0
10
0.625000
20
1.637000
40
0.025000
0
INSERT
8
0
2
RPAD
10
0.725000
20
1.637000
41
0.080000
42
0.080000
50
0.000000
0
CIRCLE
8
0
10
0.725000
20
1.637000
40
0.025000
0
INSERT
8
0
2
RPAD
10
0.825000
20
1.637000
41
0.080000
42
0.080000
50
0.000000
0
CIRCLE
8
0
10
0.825000
20
1.637000
40
0.025000
0
INSERT
8
0
2
RPAD
10
0.925000
20
1.637000
41
0.080000
42
0.080000
50
0.000000
0
CIRCLE
8
0
10
0.925000
20
1.637000
40
0.025000
0
INSERT
8
0
2
RPAD
10
1.025000
20
1.637000
41
0.080000
42
0.080000
50
0.000000
0
CIRCLE
8
0
10
1.025000
20
1.637000
40
0.025000
0
INSERT
8
0
2
EPAD
10
0.325000
20
1.487000
41
0.080000
42
0.080000
0
CIRCLE
8
0
10
0.325000
20
1.487000
40
0.025000
0
INSERT
8
0
2
EPAD
10
0.425000
20
1.487000
41
0.080000
42
0.080000
0
CIRCLE
8
0
10
0.425000
20
1.487000
40
0.025000
0
INSERT
8
0
2
RPAD
10
1.425000
20
0.037000
41
0.080000
42
0.080000
50
180.000000
0
CIRCLE
8
0
10
1.425000
20
0.037000
40
0.025000
0
INSERT
8
0
2
RPAD
10
1.325000
20
0.037000
41
0.080000
42
0.080000
50
180.000000
0
CIRCLE
8
0
10
1.325000
20
0.037000
40
0.025000
0
INSERT
8
0
2
RPAD
10
1.225000
20
0.037000
41
0.080000
42
0.080000
50
180.000000
0
CIRCLE
8
0
10
1.225000
20
0.037000
40
0.025000
0
INSERT
8
0
2
RPAD
10
1.125000
20
0.037000
41
0.080000
42
0.080000
50
180.000000
0
CIRCLE
8
0
10
1.125000
20
0.037000
40
0.025000
0
INSERT
8
0
2
RPAD
10
1.025000
20
0.037000
41
0.080000
42
0.080000
50
180.000000
0
CIRCLE
8
0
10
1.025000
20
0.037000
40
0.025000
0
INSERT
8
0
2
RPAD
10
0.925000
20
0.037000
41
0.080000
42
0.080000
50
180.000000
0
CIRCLE
8
0
10
0.925000
20
0.037000
40
0.025000
0
INSERT
8
0
2
RPAD
10
0.825000
20
0.037000
41
0.080000
42
0.080000
50
180.000000
0
CIRCLE
8
0
10
0.825000
20
0.037000
40
0.025000
0
INSERT
8
0
2
RPAD
10
0.725000
20
0.037000
41
0.080000
42
0.080000
50
180.000000
0
CIRCLE
8
0
10
0.725000
20
0.037000
40
0.025000
0
INSERT
8
0
2
RPAD
10
0.725000
20
0.637000
41
0.080000
42
0.080000
50
0.000000
0
CIRCLE
8
0
10
0.725000
20
0.637000
40
0.025000
0
INSERT
8
0
2
RPAD
10
0.825000
20
0.637000
41
0.080000
42
0.080000
50
0.000000
0
CIRCLE
8
0
10
0.825000
20
0.637000
40
0.025000
0
INSERT
8
0
2
RPAD
10
0.925000
20
0.637000
41
0.080000
42
0.080000
50
0.000000
0
CIRCLE
8
0
10
0.925000
20
0.637000
40
0.025000
0
INSERT
8
0
2
RPAD
10
1.025000
20
0.637000
41
0.080000
42
0.080000
50
0.000000
0
CIRCLE
8
0
10
1.025000
20
0.637000
40
0.025000
0
INSERT
8
0
2
RPAD
10
1.125000
20
0.637000
41
0.080000
42
0.080000
50
0.000000
0
CIRCLE
8
0
10
1.125000
20
0.637000
40
0.025000
0
INSERT
8
0
2
RPAD
10
1.225000
20
0.637000
41
0.080000
42
0.080000
50
0.000000
0
CIRCLE
8
0
10
1.225000
20
0.637000
40
0.025000
0
INSERT
8
0
2
RPAD
10
1.325000
20
0.637000
41
0.080000
42
0.080000
50
0.000000
0
CIRCLE
8
0
10
1.325000
20
0.637000
40
0.025000
0
INSERT
8
0
2
RPAD
10
1.425000
20
0.637000
41
0.080000
42
0.080000
50
0.000000
0
CIRCLE
8
0
10
1.425000
20
0.637000
40
0.025000
0
INSERT
8
0
2
RPAD
10
-0.325000
20
0.637000
41
0.080000
42
0.080000
50
0.000000
0
CIRCLE
8
0
10
-0.325000
20
0.637000
40
0.025000
0
INSERT
8
0
2
RPAD
10
-0.225000
20
0.637000
41
0.080000
42
0.080000
50
0.000000
0
CIRCLE
8
0
10
-0.225000
20
0.637000
40
0.025000
0
INSERT
8
0
2
RPAD
10
-0.125000
20
0.637000
41
0.080000
42
0.080000
50
0.000000
0
CIRCLE
8
0
10
-0.125000
20
0.637000
40
0.025000
0
INSERT
8
0
2
RPAD
10
-0.025000
20
0.637000
41
0.080000
42
0.080000
50
0.000000
0
CIRCLE
8
0
10
-0.025000
20
0.637000
40
0.025000
0
INSERT
8
0
2
RPAD
10
0.075000
20
0.637000
41
0.080000
42
0.080000
50
0.000000
0
CIRCLE
8
0
10
0.075000
20
0.637000
40
0.025000
0
INSERT
8
0
2
RPAD
10
0.175000
20
0.637000
41
0.080000
42
0.080000
50
0.000000
0
CIRCLE
8
0
10
0.175000
20
0.637000
40
0.025000
0
INSERT
8
0
2
RPAD
10
0.275000
20
0.637000
41
0.080000
42
0.080000
50
0.000000
0
CIRCLE
8
0
10
0.275000
20
0.637000
40
0.025000
0
INSERT
8
0
2
RPAD
10
0.375000
20
0.637000
41
0.080000
42
0.080000
50
0.000000
0
CIRCLE
8
0
10
0.375000
20
0.637000
40
0.025000
0
INSERT
8
0
2
RPAD
10
0.375000
20
0.037000
41
0.080000
42
0.080000
50
-180.000000
0
CIRCLE
8
0
10
0.375000
20
0.037000
40
0.025000
0
INSERT
8
0
2
RPAD
10
0.275000
20
0.037000
41
0.080000
42
0.080000
50
-180.000000
0
CIRCLE
8
0
10
0.275000
20
0.037000
40
0.025000
0
INSERT
8
0
2
RPAD
10
0.175000
20
0.037000
41
0.080000
42
0.080000
50
-180.000000
0
CIRCLE
8
0
10
0.175000
20
0.037000
40
0.025000
0
INSERT
8
0
2
RPAD
10
0.075000
20
0.037000
41
0.080000
42
0.080000
50
-180.000000
0
CIRCLE
8
0
10
0.075000
20
0.037000
40
0.025000
0
INSERT
8
0
2
RPAD
10
-0.025000
20
0.037000
41
0.080000
42
0.080000
50
-180.000000
0
CIRCLE
8
0
10
-0.025000
20
0.037000
40
0.025000
0
INSERT
8
0
2
RPAD
10
-0.125000
20
0.037000
41
0.080000
42
0.080000
50
-180.000000
0
CIRCLE
8
0
10
-0.125000
20
0.037000
40
0.025000
0
INSERT
8
0
2
RPAD
10
-0.225000
20
0.037000
41
0.080000
42
0.080000
50
-180.000000
0
CIRCLE
8
0
10
-0.225000
20
0.037000
40
0.025000
0
INSERT
8
0
2
RPAD
10
-0.325000
20
0.037000
41
0.080000
42
0.080000
50
-180.000000
0
CIRCLE
8
0
10
-0.325000
20
0.037000
40
0.025000
0
INSERT
8
0
2
EPAD
10
0.725000
20
0.487000
41
0.080000
42
0.080000
0
CIRCLE
8
0
10
0.725000
20
0.487000
40
0.025000
0
INSERT
8
0
2
EPAD
10
0.825000
20
0.487000
41
0.080000
42
0.080000
0
CIRCLE
8
0
10
0.825000
20
0.487000
40
0.025000
0
INSERT
8
0
2
EPAD
10
0.375000
20
0.187000
41
0.080000
42
0.080000
0
CIRCLE
8
0
10
0.375000
20
0.187000
40
0.025000
0
INSERT
8
0
2
EPAD
10
0.275000
20
0.187000
41
0.080000
42
0.080000
0
CIRCLE
8
0
10
0.275000
20
0.187000
40
0.025000
0
INSERT
8
0
2
EPAD
10
0.500000
20
0.187000
41
0.080000
42
0.080000
0
CIRCLE
8
0
10
0.500000
20
0.187000
40
0.010000
0
INSERT
8
0
2
EPAD
10
0.500000
20
0.562000
41
0.080000
42
0.080000
0
CIRCLE
8
0
10
0.500000
20
0.562000
40
0.010000
0
INSERT
8
0
2
EPAD
10
0.600000
20
0.662000
41
0.080000
42
0.080000
0
CIRCLE
8
0
10
0.600000
20
0.662000
40
0.010000
0
INSERT
8
0
2
EPAD
10
0.600000
20
0.037000
41
0.080000
42
0.080000
0
CIRCLE
8
0
10
0.600000
20
0.037000
40
0.010000
0
INSERT
8
0
2
RPAD
10
0.975000
20
-0.812000
41
0.080000
42
0.080000
50
180.000000
0
CIRCLE
8
0
10
0.975000
20
-0.812000
40
0.025000
0
INSERT
8
0
2
RPAD
10
0.875000
20
-0.812000
41
0.080000
42
0.080000
50
180.000000
0
CIRCLE
8
0
10
0.875000
20
-0.812000
40
0.025000
0
INSERT
8
0
2
RPAD
10
0.775000
20
-0.812000
41
0.080000
42
0.080000
50
180.000000
0
CIRCLE
8
0
10
0.775000
20
-0.812000
40
0.025000
0
INSERT
8
0
2
RPAD
10
0.675000
20
-0.812000
41
0.080000
42
0.080000
50
180.000000
0
CIRCLE
8
0
10
0.675000
20
-0.812000
40
0.025000
0
INSERT
8
0
2
RPAD
10
0.575000
20
-0.812000
41
0.080000
42
0.080000
50
180.000000
0
CIRCLE
8
0
10
0.575000
20
-0.812000
40
0.025000
0
INSERT
8
0
2
RPAD
10
0.475000
20
-0.812000
41
0.080000
42
0.080000
50
180.000000
0
CIRCLE
8
0
10
0.475000
20
-0.812000
40
0.025000
0
INSERT
8
0
2
RPAD
10
0.375000
20
-0.812000
41
0.080000
42
0.080000
50
180.000000
0
CIRCLE
8
0
10
0.375000
20
-0.812000
40
0.025000
0
INSERT
8
0
2
RPAD
10
0.275000
20
-0.812000
41
0.080000
42
0.080000
50
180.000000
0
CIRCLE
8
0
10
0.275000
20
-0.812000
40
0.025000
0
INSERT
8
0
2
RPAD
10
0.275000
20
-0.212000
41
0.080000
42
0.080000
50
0.000000
0
CIRCLE
8
0
10
0.275000
20
-0.212000
40
0.025000
0
INSERT
8
0
2
RPAD
10
0.375000
20
-0.212000
41
0.080000
42
0.080000
50
0.000000
0
CIRCLE
8
0
10
0.375000
20
-0.212000
40
0.025000
0
INSERT
8
0
2
RPAD
10
0.475000
20
-0.212000
41
0.080000
42
0.080000
50
0.000000
0
CIRCLE
8
0
10
0.475000
20
-0.212000
40
0.025000
0
INSERT
8
0
2
RPAD
10
0.575000
20
-0.212000
41
0.080000
42
0.080000
50
0.000000
0
CIRCLE
8
0
10
0.575000
20
-0.212000
40
0.025000
0
INSERT
8
0
2
RPAD
10
0.675000
20
-0.212000
41
0.080000
42
0.080000
50
0.000000
0
CIRCLE
8
0
10
0.675000
20
-0.212000
40
0.025000
0
INSERT
8
0
2
RPAD
10
0.775000
20
-0.212000
41
0.080000
42
0.080000
50
0.000000
0
CIRCLE
8
0
10
0.775000
20
-0.212000
40
0.025000
0
INSERT
8
0
2
RPAD
10
0.875000
20
-0.212000
41
0.080000
42
0.080000
50
0.000000
0
CIRCLE
8
0
10
0.875000
20
-0.212000
40
0.025000
0
INSERT
8
0
2
RPAD
10
0.975000
20
-0.212000
41
0.080000
42
0.080000
50
0.000000
0
CIRCLE
8
0
10
0.975000
20
-0.212000
40
0.025000
0
INSERT
8
0
2
EPAD
10
0.275000
20
-0.362000
41
0.080000
42
0.080000
0
CIRCLE
8
0
10
0.275000
20
-0.362000
40
0.025000
0
INSERT
8
0
2
EPAD
10
0.375000
20
-0.362000
41
0.080000
42
0.080000
0
CIRCLE
8
0
10
0.375000
20
-0.362000
40
0.025000
0
INSERT
8
0
2
EPAD
10
0.025000
20
-0.137000
41
0.080000
42
0.080000
0
CIRCLE
8
0
10
0.025000
20
-0.137000
40
0.010000
0
INSERT
8
0
2
EPAD
10
0.025000
20
-0.887000
41
0.080000
42
0.080000
0
CIRCLE
8
0
10
0.025000
20
-0.887000
40
0.010000
0
INSERT
8
0
2
EPAD
10
0.925000
20
-0.087000
41
0.080000
42
0.080000
0
CIRCLE
8
0
10
0.925000
20
-0.087000
40
0.010000
0
INSERT
8
0
2
EPAD
10
1.300000
20
-0.087000
41
0.080000
42
0.080000
0
CIRCLE
8
0
10
1.300000
20
-0.087000
40
0.010000
0
INSERT
8
0
2
EPAD
10
2.250000
20
-0.387000
41
0.080000
42
0.080000
0
CIRCLE
8
0
10
2.250000
20
-0.387000
40
0.010000
0
INSERT
8
0
2
EPAD
10
1.100000
20
-0.387000
41
0.080000
42
0.080000
0
CIRCLE
8
0
10
1.100000
20
-0.387000
40
0.010000
0
INSERT
8
0
2
EPAD
10
1.650000
20
-1.487000
41
0.090000
42
0.090000
0
CIRCLE
8
0
10
1.650000
20
-1.487000
40
0.025000
0
INSERT
8
0
2
EPAD
10
1.650000
20
-0.587000
41
0.090000
42
0.090000
0
CIRCLE
8
0
10
1.650000
20
-0.587000
40
0.025000
0
INSERT
8
0
2
EPAD
10
1.325000
20
0.537000
41
0.080000
42
0.080000
0
CIRCLE
8
0
10
1.325000
20
0.537000
40
0.010000
0
INSERT
8
0
2
EPAD
10
1.775000
20
0.537000
41
0.080000
42
0.080000
0
CIRCLE
8
0
10
1.775000
20
0.537000
40
0.010000
0
INSERT
8
0
2
EPAD
10
1.425000
20
0.762000
41
0.080000
42
0.080000
0
CIRCLE
8
0
10
1.425000
20
0.762000
40
0.010000
0
INSERT
8
0
2
EPAD
10
1.900000
20
0.762000
41
0.080000
42
0.080000
0
CIRCLE
8
0
10
1.900000
20
0.762000
40
0.010000
0
INSERT
8
0
2
RPAD
10
1.525000
20
1.587000
41
0.080000
42
0.080000
50
0.000000
0
CIRCLE
8
0
10
1.525000
20
1.587000
40
0.025000
0
INSERT
8
0
2
RPAD
10
1.625000
20
1.587000
41
0.080000
42
0.080000
50
0.000000
0
CIRCLE
8
0
10
1.625000
20
1.587000
40
0.025000
0
INSERT
8
0
2
EPAD
10
2.100000
20
1.862000
41
0.080000
42
0.080000
0
CIRCLE
8
0
10
2.100000
20
1.862000
40
0.010000
0
INSERT
8
0
2
EPAD
10
-2.650000
20
1.862000
41
0.080000
42
0.080000
0
CIRCLE
8
0
10
-2.650000
20
1.862000
40
0.010000
0
INSERT
8
0
2
RPAD
10
-2.700000
20
1.987000
41
0.080000
42
0.080000
50
0.000000
0
CIRCLE
8
0
10
-2.700000
20
1.987000
40
0.025000
0
INSERT
8
0
2
RPAD
10
-2.600000
20
1.987000
41
0.080000
42
0.080000
50
0.000000
0
CIRCLE
8
0
10
-2.600000
20
1.987000
40
0.025000
0
INSERT
8
0
2
RPAD
10
-2.500000
20
1.987000
41
0.080000
42
0.080000
50
0.000000
0
CIRCLE
8
0
10
-2.500000
20
1.987000
40
0.025000
0
INSERT
8
0
2
RPAD
10
-2.400000
20
1.987000
41
0.080000
42
0.080000
50
0.000000
0
CIRCLE
8
0
10
-2.400000
20
1.987000
40
0.025000
0
INSERT
8
0
2
RPAD
10
-2.300000
20
1.987000
41
0.080000
42
0.080000
50
0.000000
0
CIRCLE
8
0
10
-2.300000
20
1.987000
40
0.025000
0
INSERT
8
0
2
RPAD
10
-2.200000
20
1.987000
41
0.080000
42
0.080000
50
0.000000
0
CIRCLE
8
0
10
-2.200000
20
1.987000
40
0.025000
0
INSERT
8
0
2
RPAD
10
-2.100000
20
1.987000
41
0.080000
42
0.080000
50
0.000000
0
CIRCLE
8
0
10
-2.100000
20
1.987000
40
0.025000
0
INSERT
8
0
2
RPAD
10
-2.000000
20
1.987000
41
0.080000
42
0.080000
50
0.000000
0
CIRCLE
8
0
10
-2.000000
20
1.987000
40
0.025000
0
INSERT
8
0
2
RPAD
10
-1.900000
20
1.987000
41
0.080000
42
0.080000
50
0.000000
0
CIRCLE
8
0
10
-1.900000
20
1.987000
40
0.025000
0
INSERT
8
0
2
RPAD
10
-1.800000
20
1.987000
41
0.080000
42
0.080000
50
0.000000
0
CIRCLE
8
0
10
-1.800000
20
1.987000
40
0.025000
0
INSERT
8
0
2
RPAD
10
-1.700000
20
1.987000
41
0.080000
42
0.080000
50
0.000000
0
CIRCLE
8
0
10
-1.700000
20
1.987000
40
0.025000
0
INSERT
8
0
2
RPAD
10
-1.600000
20
1.987000
41
0.080000
42
0.080000
50
0.000000
0
CIRCLE
8
0
10
-1.600000
20
1.987000
40
0.025000
0
INSERT
8
0
2
RPAD
10
-1.500000
20
1.987000
41
0.080000
42
0.080000
50
0.000000
0
CIRCLE
8
0
10
-1.500000
20
1.987000
40
0.025000
0
INSERT
8
0
2
RPAD
10
-1.400000
20
1.987000
41
0.080000
42
0.080000
50
0.000000
0
CIRCLE
8
0
10
-1.400000
20
1.987000
40
0.025000
0
INSERT
8
0
2
RPAD
10
-2.725000
20
0.237000
41
0.080000
42
0.080000
50
0.000000
0
CIRCLE
8
0
10
-2.725000
20
0.237000
40
0.025000
0
INSERT
8
0
2
RPAD
10
-2.625000
20
0.237000
41
0.080000
42
0.080000
50
0.000000
0
CIRCLE
8
0
10
-2.625000
20
0.237000
40
0.025000
0
INSERT
8
0
2
RPAD
10
-2.525000
20
0.237000
41
0.080000
42
0.080000
50
0.000000
0
CIRCLE
8
0
10
-2.525000
20
0.237000
40
0.025000
0
INSERT
8
0
2
RPAD
10
-2.425000
20
0.237000
41
0.080000
42
0.080000
50
0.000000
0
CIRCLE
8
0
10
-2.425000
20
0.237000
40
0.025000
0
INSERT
8
0
2
RPAD
10
-2.325000
20
0.237000
41
0.080000
42
0.080000
50
0.000000
0
CIRCLE
8
0
10
-2.325000
20
0.237000
40
0.025000
0
INSERT
8
0
2
RPAD
10
-2.225000
20
0.237000
41
0.080000
42
0.080000
50
0.000000
0
CIRCLE
8
0
10
-2.225000
20
0.237000
40
0.025000
0
INSERT
8
0
2
RPAD
10
-2.125000
20
0.237000
41
0.080000
42
0.080000
50
0.000000
0
CIRCLE
8
0
10
-2.125000
20
0.237000
40
0.025000
0
INSERT
8
0
2
RPAD
10
-2.025000
20
0.237000
41
0.080000
42
0.080000
50
0.000000
0
CIRCLE
8
0
10
-2.025000
20
0.237000
40
0.025000
0
INSERT
8
0
2
RPAD
10
-1.925000
20
0.237000
41
0.080000
42
0.080000
50
0.000000
0
CIRCLE
8
0
10
-1.925000
20
0.237000
40
0.025000
0
INSERT
8
0
2
RPAD
10
-1.825000
20
0.237000
41
0.080000
42
0.080000
50
0.000000
0
CIRCLE
8
0
10
-1.825000
20
0.237000
40
0.025000
0
INSERT
8
0
2
RPAD
10
-1.725000
20
0.237000
41
0.080000
42
0.080000
50
0.000000
0
CIRCLE
8
0
10
-1.725000
20
0.237000
40
0.025000
0
INSERT
8
0
2
RPAD
10
-1.625000
20
0.237000
41
0.080000
42
0.080000
50
0.000000
0
CIRCLE
8
0
10
-1.625000
20
0.237000
40
0.025000
0
INSERT
8
0
2
RPAD
10
-1.525000
20
0.237000
41
0.080000
42
0.080000
50
0.000000
0
CIRCLE
8
0
10
-1.525000
20
0.237000
40
0.025000
0
INSERT
8
0
2
EPAD
10
-1.900000
20
-1.362000
41
0.080000
42
0.080000
0
CIRCLE
8
0
10
-1.900000
20
-1.362000
40
0.010000
0
INSERT
8
0
2
EPAD
10
-1.700000
20
-1.362000
41
0.080000
42
0.080000
0
CIRCLE
8
0
10
-1.700000
20
-1.362000
40
0.010000
0
INSERT
8
0
2
EPAD
10
-0.200000
20
-1.437000
41
0.070000
42
0.070000
0
CIRCLE
8
0
10
-0.200000
20
-1.437000
40
0.025000
0
INSERT
8
0
2
EPAD
10
-0.200000
20
-1.337000
41
0.070000
42
0.070000
0
CIRCLE
8
0
10
-0.200000
20
-1.337000
40
0.025000
0
INSERT
8
0
2
EPAD
10
-0.050000
20
-1.537000
41
0.070000
42
0.070000
0
CIRCLE
8
0
10
-0.050000
20
-1.537000
40
0.025000
0
INSERT
8
0
2
EPAD
10
-0.050000
20
-1.437000
41
0.070000
42
0.070000
0
CIRCLE
8
0
10
-0.050000
20
-1.437000
40
0.025000
0
INSERT
8
0
2
RPAD
10
-1.800000
20
-1.112000
41
0.080000
42
0.080000
50
0.000000
0
CIRCLE
8
0
10
-1.800000
20
-1.112000
40
0.025000
0
INSERT
8
0
2
RPAD
10
-1.700000
20
-1.112000
41
0.080000
42
0.080000
50
0.000000
0
CIRCLE
8
0
10
-1.700000
20
-1.112000
40
0.025000
0
INSERT
8
0
2
RPAD
10
-1.600000
20
-1.112000
41
0.080000
42
0.080000
50
0.000000
0
CIRCLE
8
0
10
-1.600000
20
-1.112000
40
0.025000
0
INSERT
8
0
2
RPAD
10
-1.500000
20
-1.112000
41
0.080000
42
0.080000
50
0.000000
0
CIRCLE
8
0
10
-1.500000
20
-1.112000
40
0.025000
0
INSERT
8
0
2
RPAD
10
-1.400000
20
-1.112000
41
0.080000
42
0.080000
50
0.000000
0
CIRCLE
8
0
10
-1.400000
20
-1.112000
40
0.025000
0
INSERT
8
0
2
RPAD
10
-1.300000
20
-1.112000
41
0.080000
42
0.080000
50
0.000000
0
CIRCLE
8
0
10
-1.300000
20
-1.112000
40
0.025000
0
INSERT
8
0
2
RPAD
10
-1.200000
20
-1.112000
41
0.080000
42
0.080000
50
0.000000
0
CIRCLE
8
0
10
-1.200000
20
-1.112000
40
0.025000
0
INSERT
8
0
2
RPAD
10
-1.100000
20
-1.112000
41
0.080000
42
0.080000
50
0.000000
0
CIRCLE
8
0
10
-1.100000
20
-1.112000
40
0.025000
0
INSERT
8
0
2
EPAD
10
-1.950000
20
-1.112000
41
0.080000
42
0.080000
0
CIRCLE
8
0
10
-1.950000
20
-1.112000
40
0.010000
0
INSERT
8
0
2
EPAD
10
-2.650000
20
-1.112000
41
0.080000
42
0.080000
0
CIRCLE
8
0
10
-2.650000
20
-1.112000
40
0.010000
0
INSERT
8
0
2
EPAD
10
2.400000
20
1.587000
41
0.080000
42
0.080000
0
CIRCLE
8
0
10
2.400000
20
1.587000
40
0.010000
0
INSERT
8
0
2
EPAD
10
2.875000
20
-1.812000
41
0.150000
42
0.150000
0
CIRCLE
8
0
10
2.875000
20
-1.812000
40
0.030000
0
INSERT
8
0
2
EPAD
10
1.300000
20
-0.212000
41
0.080000
42
0.080000
0
CIRCLE
8
0
10
1.300000
20
-0.212000
40
0.010000
0
INSERT
8
0
2
EPAD
10
1.775000
20
-0.212000
41
0.080000
42
0.080000
0
CIRCLE
8
0
10
1.775000
20
-0.212000
40
0.010000
0
INSERT
8
0
2
EPAD
10
2.350000
20
-1.687000
41
0.070000
42
0.070000
0
CIRCLE
8
0
10
2.350000
20
-1.687000
40
0.025000
0
INSERT
8
0
2
EPAD
10
2.350000
20
-1.287000
41
0.070000
42
0.070000
0
CIRCLE
8
0
10
2.350000
20
-1.287000
40
0.025000
0
INSERT
8
0
2
EPAD
10
2.200000
20
-0.212000
41
0.070000
42
0.070000
0
CIRCLE
8
0
10
2.200000
20
-0.212000
40
0.025000
0
INSERT
8
0
2
EPAD
10
2.600000
20
-0.212000
41
0.070000
42
0.070000
0
CIRCLE
8
0
10
2.600000
20
-0.212000
40
0.025000
0
INSERT
8
0
2
RPAD
10
-0.550000
20
1.687000
41
0.080000
42
0.080000
50
0.000000
0
CIRCLE
8
0
10
-0.550000
20
1.687000
40
0.025000
0
INSERT
8
0
2
RPAD
10
-0.450000
20
1.687000
41
0.080000
42
0.080000
50
0.000000
0
CIRCLE
8
0
10
-0.450000
20
1.687000
40
0.025000
0
INSERT
8
0
2
RPAD
10
-0.350000
20
1.687000
41
0.080000
42
0.080000
50
0.000000
0
CIRCLE
8
0
10
-0.350000
20
1.687000
40
0.025000
0
INSERT
8
0
2
RPAD
10
-0.250000
20
1.687000
41
0.080000
42
0.080000
50
0.000000
0
CIRCLE
8
0
10
-0.250000
20
1.687000
40
0.025000
0
INSERT
8
0
2
RPAD
10
-0.150000
20
1.687000
41
0.080000
42
0.080000
50
0.000000
0
CIRCLE
8
0
10
-0.150000
20
1.687000
40
0.025000
0
INSERT
8
0
2
RPAD
10
-0.050000
20
1.687000
41
0.080000
42
0.080000
50
0.000000
0
CIRCLE
8
0
10
-0.050000
20
1.687000
40
0.025000
0
INSERT
8
0
2
EPAD
10
-0.250000
20
1.482000
41
0.080000
42
0.080000
0
CIRCLE
8
0
10
-0.250000
20
1.482000
40
0.010000
0
INSERT
8
0
2
EPAD
10
-0.050000
20
1.412000
41
0.080000
42
0.080000
0
CIRCLE
8
0
10
-0.050000
20
1.412000
40
0.010000
0
INSERT
8
0
2
EPAD
10
-1.150000
20
1.482000
41
0.080000
42
0.080000
0
CIRCLE
8
0
10
-1.150000
20
1.482000
40
0.010000
0
INSERT
8
0
2
EPAD
10
-1.250000
20
1.412000
41
0.080000
42
0.080000
0
CIRCLE
8
0
10
-1.250000
20
1.412000
40
0.010000
0
INSERT
8
0
2
EPAD
10
-1.225000
20
1.937000
41
0.080000
42
0.080000
0
CIRCLE
8
0
10
-1.225000
20
1.937000
40
0.010000
0
INSERT
8
0
2
EPAD
10
0.075000
20
1.937000
41
0.080000
42
0.080000
0
CIRCLE
8
0
10
0.075000
20
1.937000
40
0.010000
0
INSERT
8
0
2
RPAD
10
-0.550000
20
1.137000
41
0.080000
42
0.080000
50
0.000000
0
CIRCLE
8
0
10
-0.550000
20
1.137000
40
0.025000
0
INSERT
8
0
2
RPAD
10
-0.450000
20
1.137000
41
0.080000
42
0.080000
50
0.000000
0
CIRCLE
8
0
10
-0.450000
20
1.137000
40
0.025000
0
INSERT
8
0
2
RPAD
10
-0.350000
20
1.137000
41
0.080000
42
0.080000
50
0.000000
0
CIRCLE
8
0
10
-0.350000
20
1.137000
40
0.025000
0
INSERT
8
0
2
RPAD
10
-0.250000
20
1.137000
41
0.080000
42
0.080000
50
0.000000
0
CIRCLE
8
0
10
-0.250000
20
1.137000
40
0.025000
0
INSERT
8
0
2
RPAD
10
-0.150000
20
1.137000
41
0.080000
42
0.080000
50
0.000000
0
CIRCLE
8
0
10
-0.150000
20
1.137000
40
0.025000
0
INSERT
8
0
2
RPAD
10
-0.050000
20
1.137000
41
0.080000
42
0.080000
50
0.000000
0
CIRCLE
8
0
10
-0.050000
20
1.137000
40
0.025000
0
INSERT
8
0
2
EPAD
10
-1.050000
20
1.552000
41
0.080000
42
0.080000
0
CIRCLE
8
0
10
-1.050000
20
1.552000
40
0.010000
0
INSERT
8
0
2
EPAD
10
-0.150000
20
1.552000
41
0.080000
42
0.080000
0
CIRCLE
8
0
10
-0.150000
20
1.552000
40
0.010000
0
INSERT
8
0
2
RPAD
10
2.825000
20
0.852000
41
0.080000
42
0.080000
50
180.000000
0
CIRCLE
8
0
10
2.825000
20
0.852000
40
0.025000
0
INSERT
8
0
2
RPAD
10
2.725000
20
0.852000
41
0.080000
42
0.080000
50
180.000000
0
CIRCLE
8
0
10
2.725000
20
0.852000
40
0.025000
0
INSERT
8
0
2
RPAD
10
2.725000
20
-0.237000
41
0.080000
42
0.080000
50
-90.000000
0
CIRCLE
8
0
10
2.725000
20
-0.237000
40
0.025000
0
INSERT
8
0
2
RPAD
10
2.725000
20
-0.337000
41
0.080000
42
0.080000
50
-90.000000
0
CIRCLE
8
0
10
2.725000
20
-0.337000
40
0.025000
0
INSERT
8
0
2
EPAD
10
2.865000
20
0.062000
41
0.070000
42
0.070000
0
CIRCLE
8
0
10
2.865000
20
0.062000
40
0.025000
0
INSERT
8
0
2
EPAD
10
2.865000
20
-0.337000
41
0.070000
42
0.070000
0
CIRCLE
8
0
10
2.865000
20
-0.337000
40
0.025000
0
INSERT
8
0
2
EPAD
10
2.725000
20
1.187000
41
0.070000
42
0.070000
0
CIRCLE
8
0
10
2.725000
20
1.187000
40
0.025000
0
INSERT
8
0
2
EPAD
10
2.725000
20
1.587000
41
0.070000
42
0.070000
0
CIRCLE
8
0
10
2.725000
20
1.587000
40
0.025000
0
POLYLINE
8
0
66
1
40
0.008000
41
0.008000
0
VERTEX
8
0
10
-3.000000
20
-1.937000
0
VERTEX
8
0
10
3.000000
20
-1.937000
0
VERTEX
8
0
10
3.000000
20
2.062000
0
VERTEX
8
0
10
-3.000000
20
2.062000
0
VERTEX
8
0
10
-3.000000
20
-1.937000
0
SEQEND
8
0
0
POLYLINE
8
0
66
1
40
0.008000
41
0.008000
0
VERTEX
8
0
10
2.550000
20
-1.237000
0
VERTEX
8
0
10
2.650000
20
-1.237000
0
VERTEX
8
0
10
2.650000
20
-0.437000
0
VERTEX
8
0
10
2.550000
20
-0.437000
0
VERTEX
8
0
10
2.550000
20
-1.237000
0
SEQEND
8
0
0
TEXT
8
12632256
10
2.540000
20
-1.062000
40
0.048000
41
1.041667
50
90.000000
1
E0-HEATER
0
CIRCLE
8
12632256
10
2.450000
20
-0.387000
40
0.100000
0
POLYLINE
8
0
66
1
40
0.008000
41
0.008000
0
VERTEX
8
0
10
2.525000
20
-0.437000
0
VERTEX
8
0
10
2.475000
20
-0.437000
0
SEQEND
8
0
0
POLYLINE
8
0
66
1
40
0.008000
41
0.008000
0
VERTEX
8
0
10
2.500000
20
-0.462000
0
VERTEX
8
0
10
2.500000
20
-0.412000
0
SEQEND
8
0
0
TEXT
8
12632256
10
2.550000
20
-0.420000
40
0.048000
41
1.041667
1
C6
0
POLYLINE
8
0
66
1
40
0.008000
41
0.008000
0
VERTEX
8
0
10
2.450000
20
-0.512000
0
VERTEX
8
0
10
2.400000
20
-0.512000
0
SEQEND
8
0
0
POLYLINE
8
0
66
1
40
0.008000
41
0.008000
0
VERTEX
8
0
10
2.200000
20
-0.537000
0
VERTEX
8
0
10
2.400000
20
-0.537000
0
VERTEX
8
0
10
2.400000
20
-0.487000
0
VERTEX
8
0
10
2.200000
20
-0.487000
0
VERTEX
8
0
10
2.200000
20
-0.537000
0
SEQEND
8
0
0
POLYLINE
8
0
66
1
40
0.008000
41
0.008000
0
VERTEX
8
0
10
2.200000
20
-0.512000
0
VERTEX
8
0
10
2.150000
20
-0.512000
0
SEQEND
8
0
0
TEXT
8
12632256
10
2.250000
20
-0.595000
40
0.048000
41
1.041667
1
R2
0
POLYLINE
8
0
66
1
40
0.008000
41
0.008000
0
VERTEX
8
0
10
2.325000
20
-1.037000
0
VERTEX
8
0
10
2.425000
20
-1.037000
0
VERTEX
8
0
10
2.425000
20
-0.737000
0
VERTEX
8
0
10
2.325000
20
-0.737000
0
VERTEX
8
0
10
2.325000
20
-1.037000
0
VERTEX
8
0
10
2.275000
20
-1.037000
0
VERTEX
8
0
10
2.275000
20
-0.737000
0
VERTEX
8
0
10
2.325000
20
-0.737000
0
SEQEND
8
0
0
POLYLINE
8
0
66
1
40
0.008000
41
0.008000
0
VERTEX
8
0
10
2.325000
20
-1.037000
0
VERTEX
8
0
10
2.275000
20
-0.987000
0
SEQEND
8
0
0
POLYLINE
8
0
66
1
40
0.008000
41
0.008000
0
VERTEX
8
0
10
2.325000
20
-0.987000
0
VERTEX
8
0
10
2.275000
20
-0.937000
0
SEQEND
8
0
0
POLYLINE
8
0
66
1
40
0.008000
41
0.008000
0
VERTEX
8
0
10
2.325000
20
-0.937000
0
VERTEX
8
0
10
2.275000
20
-0.887000
0
SEQEND
8
0
0
POLYLINE
8
0
66
1
40
0.008000
41
0.008000
0
VERTEX
8
0
10
2.325000
20
-0.887000
0
VERTEX
8
0
10
2.275000
20
-0.837000
0
SEQEND
8
0
0
POLYLINE
8
0
66
1
40
0.008000
41
0.008000
0
VERTEX
8
0
10
2.325000
20
-0.837000
0
VERTEX
8
0
10
2.275000
20
-0.787000
0
SEQEND
8
0
0
POLYLINE
8
0
66
1
40
0.008000
41
0.008000
0
VERTEX
8
0
10
2.325000
20
-0.787000
0
VERTEX
8
0
10
2.275000
20
-0.737000
0
SEQEND
8
0
0
TEXT
8
12632256
10
2.265000
20
-0.937000
40
0.048000
41
1.041667
50
90.000000
1
Q1
0
POLYLINE
8
0
66
1
40
0.008000
41
0.008000
0
VERTEX
8
0
10
-2.600000
20
1.587000
0
VERTEX
8
0
10
-0.900000
20
1.587000
0
VERTEX
8
0
10
-0.900000
20
1.787000
0
VERTEX
8
0
10
-2.600000
20
1.787000
0
VERTEX
8
0
10
-2.600000
20
1.587000
0
SEQEND
8
0
0
POLYLINE
8
0
66
1
40
0.008000
41
0.008000
0
VERTEX
8
0
10
-1.000000
20
0.587000
0
VERTEX
8
0
10
-0.900000
20
0.587000
0
VERTEX
8
0
10
-0.900000
20
1.387000
0
VERTEX
8
0
10
-1.000000
20
1.387000
0
VERTEX
8
0
10
-1.000000
20
0.587000
0
SEQEND
8
0
0
POLYLINE
8
0
66
1
40
0.008000
41
0.008000
0
VERTEX
8
0
10
-1.000000
20
-0.312000
0
VERTEX
8
0
10
-0.900000
20
-0.312000
0
VERTEX
8
0
10
-0.900000
20
0.487000
0
VERTEX
8
0
10
-1.000000
20
0.487000
0
VERTEX
8
0
10
-1.000000
20
-0.312000
0
SEQEND
8
0
0
POLYLINE
8
0
66
1
40
0.008000
41
0.008000
0
VERTEX
8
0
10
-1.000000
20
-1.162000
0
VERTEX
8
0
10
-0.900000
20
-1.162000
0
VERTEX
8
0
10
-0.900000
20
-0.362000
0
VERTEX
8
0
10
-1.000000
20
-0.362000
0
VERTEX
8
0
10
-1.000000
20
-1.162000
0
SEQEND
8
0
0
POLYLINE
8
0
66
1
40
0.008000
41
0.008000
0
VERTEX
8
0
10
-2.900000
20
-0.812000
0
VERTEX
8
0
10
-2.800000
20
-0.812000
0
VERTEX
8
0
10
-2.800000
20
-0.212000
0
VERTEX
8
0
10
-2.900000
20
-0.212000
0
VERTEX
8
0
10
-2.900000
20
-0.812000
0
SEQEND
8
0
0
POLYLINE
8
0
66
1
40
0.008000
41
0.008000
0
VERTEX
8
0
10
-2.900000
20
-0.112000
0
VERTEX
8
0
10
-2.800000
20
-0.112000
0
VERTEX
8
0
10
-2.800000
20
0.687000
0
VERTEX
8
0
10
-2.900000
20
0.687000
0
VERTEX
8
0
10
-2.900000
20
-0.112000
0
SEQEND
8
0
0
POLYLINE
8
0
66
1
40
0.008000
41
0.008000
0
VERTEX
8
0
10
-2.900000
20
0.787000
0
VERTEX
8
0
10
-2.800000
20
0.787000
0
VERTEX
8
0
10
-2.800000
20
1.587000
0
VERTEX
8
0
10
-2.900000
20
1.587000
0
VERTEX
8
0
10
-2.900000
20
0.787000
0
SEQEND
8
0
0
POLYLINE
8
0
66
1
40
0.008000
41
0.008000
0
VERTEX
8
0
10
-2.700000
20
1.587000
0
VERTEX
8
0
10
-2.600000
20
1.587000
0
VERTEX
8
0
10
-2.600000
20
1.787000
0
VERTEX
8
0
10
-2.700000
20
1.787000
0
VERTEX
8
0
10
-2.700000
20
1.587000
0
SEQEND
8
0
0
TEXT
8
12632256
10
-2.275000
20
-1.318000
40
0.080000
41
1.250000
1
ARDUINO MEGA
0
POLYLINE
8
0
66
1
40
0.008000
41
0.008000
0
VERTEX
8
0
10
2.550000
20
-0.162000
0
VERTEX
8
0
10
2.650000
20
-0.162000
0
VERTEX
8
0
10
2.650000
20
0.637000
0
VERTEX
8
0
10
2.550000
20
0.637000
0
VERTEX
8
0
10
2.550000
20
-0.162000
0
SEQEND
8
0
0
TEXT
8
12632256
10
2.540000
20
0.037000
40
0.048000
41
1.041667
50
90.000000
1
B-HEATER
0
POLYLINE
8
0
66
1
40
0.008000
41
0.008000
0
VERTEX
8
0
10
2.450000
20
0.587000
0
VERTEX
8
0
10
2.400000
20
0.587000
0
SEQEND
8
0
0
POLYLINE
8
0
66
1
40
0.008000
41
0.008000
0
VERTEX
8
0
10
2.200000
20
0.562000
0
VERTEX
8
0
10
2.400000
20
0.562000
0
VERTEX
8
0
10
2.400000
20
0.612000
0
VERTEX
8
0
10
2.200000
20
0.612000
0
VERTEX
8
0
10
2.200000
20
0.562000
0
SEQEND
8
0
0
POLYLINE
8
0
66
1
40
0.008000
41
0.008000
0
VERTEX
8
0
10
2.200000
20
0.587000
0
VERTEX
8
0
10
2.150000
20
0.587000
0
SEQEND
8
0
0
TEXT
8
12632256
10
2.250000
20
0.504000
40
0.048000
41
1.041667
1
R4
0
CIRCLE
8
12632256
10
2.450000
20
0.762000
40
0.100000
0
POLYLINE
8
0
66
1
40
0.008000
41
0.008000
0
VERTEX
8
0
10
2.525000
20
0.712000
0
VERTEX
8
0
10
2.475000
20
0.712000
0
SEQEND
8
0
0
POLYLINE
8
0
66
1
40
0.008000
41
0.008000
0
VERTEX
8
0
10
2.500000
20
0.687000
0
VERTEX
8
0
10
2.500000
20
0.737000
0
SEQEND
8
0
0
TEXT
8
12632256
10
2.400000
20
0.879000
40
0.048000
41
1.041667
1
C8
0
POLYLINE
8
0
66
1
40
0.008000
41
0.008000
0
VERTEX
8
0
10
2.325000
20
0.037000
0
VERTEX
8
0
10
2.425000
20
0.037000
0
VERTEX
8
0
10
2.425000
20
0.337000
0
VERTEX
8
0
10
2.325000
20
0.337000
0
VERTEX
8
0
10
2.325000
20
0.037000
0
VERTEX
8
0
10
2.275000
20
0.037000
0
VERTEX
8
0
10
2.275000
20
0.337000
0
VERTEX
8
0
10
2.325000
20
0.337000
0
SEQEND
8
0
0
POLYLINE
8
0
66
1
40
0.008000
41
0.008000
0
VERTEX
8
0
10
2.325000
20
0.037000
0
VERTEX
8
0
10
2.275000
20
0.087000
0
SEQEND
8
0
0
POLYLINE
8
0
66
1
40
0.008000
41
0.008000
0
VERTEX
8
0
10
2.325000
20
0.087000
0
VERTEX
8
0
10
2.275000
20
0.137000
0
SEQEND
8
0
0
POLYLINE
8
0
66
1
40
0.008000
41
0.008000
0
VERTEX
8
0
10
2.325000
20
0.137000
0
VERTEX
8
0
10
2.275000
20
0.187000
0
SEQEND
8
0
0
POLYLINE
8
0
66
1
40
0.008000
41
0.008000
0
VERTEX
8
0
10
2.325000
20
0.187000
0
VERTEX
8
0
10
2.275000
20
0.237000
0
SEQEND
8
0
0
POLYLINE
8
0
66
1
40
0.008000
41
0.008000
0
VERTEX
8
0
10
2.325000
20
0.237000
0
VERTEX
8
0
10
2.275000
20
0.287000
0
SEQEND
8
0
0
POLYLINE
8
0
66
1
40
0.008000
41
0.008000
0
VERTEX
8
0
10
2.325000
20
0.287000
0
VERTEX
8
0
10
2.275000
20
0.337000
0
SEQEND
8
0
0
TEXT
8
12632256
10
2.265000
20
0.137000
40
0.048000
41
1.041667
50
90.000000
1
Q3
0
POLYLINE
8
0
66
1
40
0.008000
41
0.008000
0
VERTEX
8
0
10
-0.450000
20
-1.587000
0
VERTEX
8
0
10
-0.350000
20
-1.587000
0
VERTEX
8
0
10
-0.350000
20
-1.287000
0
VERTEX
8
0
10
-0.450000
20
-1.287000
0
VERTEX
8
0
10
-0.450000
20
-1.587000
0
SEQEND
8
0
0
POLYLINE
8
0
66
1
40
0.008000
41
0.008000
0
VERTEX
8
0
10
-0.350000
20
-1.287000
0
VERTEX
8
0
10
-0.300000
20
-1.287000
0
VERTEX
8
0
10
-0.300000
20
-1.587000
0
VERTEX
8
0
10
-0.350000
20
-1.587000
0
SEQEND
8
0
0
POLYLINE
8
0
66
1
40
0.008000
41
0.008000
0
VERTEX
8
0
10
-0.350000
20
-1.287000
0
VERTEX
8
0
10
-0.300000
20
-1.337000
0
SEQEND
8
0
0
POLYLINE
8
0
66
1
40
0.008000
41
0.008000
0
VERTEX
8
0
10
-0.350000
20
-1.337000
0
VERTEX
8
0
10
-0.300000
20
-1.387000
0
SEQEND
8
0
0
POLYLINE
8
0
66
1
40
0.008000
41
0.008000
0
VERTEX
8
0
10
-0.350000
20
-1.387000
0
VERTEX
8
0
10
-0.300000
20
-1.437000
0
SEQEND
8
0
0
POLYLINE
8
0
66
1
40
0.008000
41
0.008000
0
VERTEX
8
0
10
-0.350000
20
-1.437000
0
VERTEX
8
0
10
-0.300000
20
-1.487000
0
SEQEND
8
0
0
POLYLINE
8
0
66
1
40
0.008000
41
0.008000
0
VERTEX
8
0
10
-0.350000
20
-1.487000
0
VERTEX
8
0
10
-0.300000
20
-1.537000
0
SEQEND
8
0
0
POLYLINE
8
0
66
1
40
0.008000
41
0.008000
0
VERTEX
8
0
10
-0.350000
20
-1.537000
0
VERTEX
8
0
10
-0.300000
20
-1.587000
0
SEQEND
8
0
0
TEXT
8
12632256
10
-0.416000
20
-1.261000
40
0.048000
41
1.041667
1
U1
0
POLYLINE
8
0
66
1
40
0.008000
41
0.008000
0
VERTEX
8
0
10
0.150000
20
-1.512000
0
VERTEX
8
0
10
0.150000
20
-1.462000
0
SEQEND
8
0
0
POLYLINE
8
0
66
1
40
0.008000
41
0.008000
0
VERTEX
8
0
10
0.125000
20
-1.462000
0
VERTEX
8
0
10
0.175000
20
-1.462000
0
VERTEX
8
0
10
0.175000
20
-1.262000
0
VERTEX
8
0
10
0.125000
20
-1.262000
0
VERTEX
8
0
10
0.125000
20
-1.462000
0
SEQEND
8
0
0
POLYLINE
8
0
66
1
40
0.008000
41
0.008000
0
VERTEX
8
0
10
0.150000
20
-1.262000
0
VERTEX
8
0
10
0.150000
20
-1.212000
0
SEQEND
8
0
0
TEXT
8
12632256
10
0.115000
20
-1.412000
40
0.048000
41
1.041667
50
90.000000
1
R1
0
POLYLINE
8
0
66
1
40
0.008000
41
0.008000
0
VERTEX
8
0
10
-0.700000
20
-1.487000
0
VERTEX
8
0
10
-0.500000
20
-1.487000
0
VERTEX
8
0
10
-0.500000
20
-1.387000
0
VERTEX
8
0
10
-0.700000
20
-1.387000
0
VERTEX
8
0
10
-0.700000
20
-1.487000
0
SEQEND
8
0
0
TEXT
8
12632256
10
-0.725000
20
-1.377000
40
0.048000
41
1.041667
1
RESET
0
POLYLINE
8
0
66
1
40
0.008000
41
0.008000
0
VERTEX
8
0
10
1.750000
20
-1.587000
0
VERTEX
8
0
10
2.150000
20
-1.587000
0
VERTEX
8
0
10
2.150000
20
-1.337000
0
VERTEX
8
0
10
1.750000
20
-1.337000
0
VERTEX
8
0
10
1.750000
20
-1.587000
0
SEQEND
8
0
0
POLYLINE
8
0
66
1
40
0.008000
41
0.008000
0
VERTEX
8
0
10
1.750000
20
-1.387000
0
VERTEX
8
0
10
2.150000
20
-1.387000
0
SEQEND
8
0
0
TEXT
8
12632256
10
1.800000
20
-1.327000
40
0.048000
41
1.041667
1
12V-IN
0
POLYLINE
8
0
66
1
40
0.008000
41
0.008000
0
VERTEX
8
0
10
0.775000
20
-1.587000
0
VERTEX
8
0
10
1.175000
20
-1.587000
0
VERTEX
8
0
10
1.175000
20
-1.337000
0
VERTEX
8
0
10
0.775000
20
-1.337000
0
VERTEX
8
0
10
0.775000
20
-1.587000
0
SEQEND
8
0
0
POLYLINE
8
0
66
1
40
0.008000
41
0.008000
0
VERTEX
8
0
10
0.775000
20
-1.387000
0
VERTEX
8
0
10
1.175000
20
-1.387000
0
SEQEND
8
0
0
TEXT
8
12632256
10
0.900000
20
-1.327000
40
0.048000
41
1.041667
1
GND
0
POLYLINE
8
0
66
1
40
0.008000
41
0.008000
0
VERTEX
8
0
10
2.125000
20
-1.212000
0
VERTEX
8
0
10
2.175000
20
-1.212000
0
SEQEND
8
0
0
POLYLINE
8
0
66
1
40
0.008000
41
0.008000
0
VERTEX
8
0
10
2.175000
20
-1.237000
0
VERTEX
8
0
10
2.375000
20
-1.237000
0
VERTEX
8
0
10
2.375000
20
-1.187000
0
VERTEX
8
0
10
2.175000
20
-1.187000
0
VERTEX
8
0
10
2.175000
20
-1.237000
0
SEQEND
8
0
0
POLYLINE
8
0
66
1
40
0.008000
41
0.008000
0
VERTEX
8
0
10
2.375000
20
-1.212000
0
VERTEX
8
0
10
2.425000
20
-1.212000
0
SEQEND
8
0
0
TEXT
8
12632256
10
2.225000
20
-1.177000
40
0.048000
41
1.041667
1
R5
0
CIRCLE
8
12632256
10
2.575000
20
-1.412000
40
0.000000
0
CIRCLE
8
12632256
10
2.575000
20
-1.412000
40
0.100000
0
POLYLINE
8
0
66
1
40
0.008000
41
0.008000
0
VERTEX
8
0
10
2.700000
20
-1.512000
0
VERTEX
8
0
10
2.650000
20
-1.512000
0
SEQEND
8
0
0
POLYLINE
8
0
66
1
40
0.008000
41
0.008000
0
VERTEX
8
0
10
2.675000
20
-1.537000
0
VERTEX
8
0
10
2.675000
20
-1.487000
0
SEQEND
8
0
0
TEXT
8
12632256
10
2.412000
20
-1.595000
40
0.048000
41
1.041667
1
PWR-LED
0
POLYLINE
8
0
66
1
40
0.008000
41
0.008000
0
VERTEX
8
0
10
-0.750000
20
-0.937000
0
VERTEX
8
0
10
-0.450000
20
-0.937000
0
VERTEX
8
0
10
-0.450000
20
-0.837000
0
VERTEX
8
0
10
-0.750000
20
-0.837000
0
VERTEX
8
0
10
-0.750000
20
-0.937000
0
SEQEND
8
0
0
TEXT
8
12632256
10
-0.425000
20
-0.877000
40
0.048000
41
1.041667
1
X-MIN
0
POLYLINE
8
0
66
1
40
0.008000
41
0.008000
0
VERTEX
8
0
10
-0.750000
20
-0.837000
0
VERTEX
8
0
10
-0.450000
20
-0.837000
0
VERTEX
8
0
10
-0.450000
20
-0.737000
0
VERTEX
8
0
10
-0.750000
20
-0.737000
0
VERTEX
8
0
10
-0.750000
20
-0.837000
0
SEQEND
8
0
0
TEXT
8
12632256
10
-0.425000
20
-0.777000
40
0.048000
41
1.041667
1
X-MAX
0
POLYLINE
8
0
66
1
40
0.008000
41
0.008000
0
VERTEX
8
0
10
-0.750000
20
-0.737000
0
VERTEX
8
0
10
-0.450000
20
-0.737000
0
VERTEX
8
0
10
-0.450000
20
-0.637000
0
VERTEX
8
0
10
-0.750000
20
-0.637000
0
VERTEX
8
0
10
-0.750000
20
-0.737000
0
SEQEND
8
0
0
TEXT
8
12632256
10
-0.425000
20
-0.677000
40
0.048000
41
1.041667
1
Y-MIN
0
POLYLINE
8
0
66
1
40
0.008000
41
0.008000
0
VERTEX
8
0
10
-0.750000
20
-0.637000
0
VERTEX
8
0
10
-0.450000
20
-0.637000
0
VERTEX
8
0
10
-0.450000
20
-0.537000
0
VERTEX
8
0
10
-0.750000
20
-0.537000
0
VERTEX
8
0
10
-0.750000
20
-0.637000
0
SEQEND
8
0
0
TEXT
8
12632256
10
-0.425000
20
-0.577000
40
0.048000
41
1.041667
1
Y-MAX
0
POLYLINE
8
0
66
1
40
0.008000
41
0.008000
0
VERTEX
8
0
10
-0.750000
20
-0.537000
0
VERTEX
8
0
10
-0.450000
20
-0.537000
0
VERTEX
8
0
10
-0.450000
20
-0.437000
0
VERTEX
8
0
10
-0.750000
20
-0.437000
0
VERTEX
8
0
10
-0.750000
20
-0.537000
0
SEQEND
8
0
0
TEXT
8
12632256
10
-0.425000
20
-0.477000
40
0.048000
41
1.041667
1
Z-MIN
0
POLYLINE
8
0
66
1
40
0.008000
41
0.008000
0
VERTEX
8
0
10
-0.750000
20
-0.437000
0
VERTEX
8
0
10
-0.450000
20
-0.437000
0
VERTEX
8
0
10
-0.450000
20
-0.337000
0
VERTEX
8
0
10
-0.750000
20
-0.337000
0
VERTEX
8
0
10
-0.750000
20
-0.437000
0
SEQEND
8
0
0
TEXT
8
12632256
10
-0.425000
20
-0.377000
40
0.048000
41
1.041667
1
Z-MAX
0
POLYLINE
8
0
66
1
40
0.008000
41
0.008000
0
VERTEX
8
0
10
0.275000
20
0.987000
0
VERTEX
8
0
10
1.075000
20
0.987000
0
VERTEX
8
0
10
1.075000
20
1.087000
0
VERTEX
8
0
10
0.275000
20
1.087000
0
VERTEX
8
0
10
0.275000
20
0.987000
0
SEQEND
8
0
0
POLYLINE
8
0
66
1
40
0.008000
41
0.008000
0
VERTEX
8
0
10
0.275000
20
1.587000
0
VERTEX
8
0
10
1.075000
20
1.587000
0
VERTEX
8
0
10
1.075000
20
1.687000
0
VERTEX
8
0
10
0.275000
20
1.687000
0
VERTEX
8
0
10
0.275000
20
1.587000
0
SEQEND
8
0
0
TEXT
8
12632256
10
0.516000
20
1.713000
40
0.048000
41
1.041667
1
E0-DRV
0
CIRCLE
8
12632256
10
0.375000
20
1.487000
40
0.100000
0
POLYLINE
8
0
66
1
40
0.008000
41
0.008000
0
VERTEX
8
0
10
0.300000
20
1.537000
0
VERTEX
8
0
10
0.350000
20
1.537000
0
SEQEND
8
0
0
POLYLINE
8
0
66
1
40
0.008000
41
0.008000
0
VERTEX
8
0
10
0.325000
20
1.562000
0
VERTEX
8
0
10
0.325000
20
1.512000
0
SEQEND
8
0
0
TEXT
8
12632256
10
0.325000
20
1.322000
40
0.048000
41
1.041667
1
C4
0
POLYLINE
8
0
66
1
40
0.008000
41
0.008000
0
VERTEX
8
0
10
0.675000
20
-0.012000
0
VERTEX
8
0
10
1.475000
20
-0.012000
0
VERTEX
8
0
10
1.475000
20
0.087000
0
VERTEX
8
0
10
0.675000
20
0.087000
0
VERTEX
8
0
10
0.675000
20
-0.012000
0
SEQEND
8
0
0
POLYLINE
8
0
66
1
40
0.008000
41
0.008000
0
VERTEX
8
0
10
0.675000
20
0.587000
0
VERTEX
8
0
10
1.475000
20
0.587000
0
VERTEX
8
0
10
1.475000
20
0.687000
0
VERTEX
8
0
10
0.675000
20
0.687000
0
VERTEX
8
0
10
0.675000
20
0.587000
0
SEQEND
8
0
0
TEXT
8
12632256
10
0.941000
20
0.713000
40
0.048000
41
1.041667
1
Y-DRV
0
POLYLINE
8
0
66
1
40
0.008000
41
0.008000
0
VERTEX
8
0
10
-0.375000
20
0.587000
0
VERTEX
8
0
10
0.425000
20
0.587000
0
VERTEX
8
0
10
0.425000
20
0.687000
0
VERTEX
8
0
10
-0.375000
20
0.687000
0
VERTEX
8
0
10
-0.375000
20
0.587000
0
SEQEND
8
0
0
POLYLINE
8
0
66
1
40
0.008000
41
0.008000
0
VERTEX
8
0
10
-0.375000
20
-0.012000
0
VERTEX
8
0
10
0.425000
20
-0.012000
0
VERTEX
8
0
10
0.425000
20
0.087000
0
VERTEX
8
0
10
-0.375000
20
0.087000
0
VERTEX
8
0
10
-0.375000
20
-0.012000
0
SEQEND
8
0
0
TEXT
8
12632256
10
-0.091000
20
-0.086000
40
0.048000
41
1.041667
1
Z-DRV
0
CIRCLE
8
12632256
10
0.775000
20
0.487000
40
0.100000
0
POLYLINE
8
0
66
1
40
0.008000
41
0.008000
0
VERTEX
8
0
10
0.700000
20
0.537000
0
VERTEX
8
0
10
0.750000
20
0.537000
0
SEQEND
8
0
0
POLYLINE
8
0
66
1
40
0.008000
41
0.008000
0
VERTEX
8
0
10
0.725000
20
0.562000
0
VERTEX
8
0
10
0.725000
20
0.512000
0
SEQEND
8
0
0
TEXT
8
12632256
10
0.725000
20
0.322000
40
0.048000
41
1.041667
1
C2
0
CIRCLE
8
12632256
10
0.325000
20
0.187000
40
0.100000
0
POLYLINE
8
0
66
1
40
0.008000
41
0.008000
0
VERTEX
8
0
10
0.400000
20
0.137000
0
VERTEX
8
0
10
0.350000
20
0.137000
0
SEQEND
8
0
0
POLYLINE
8
0
66
1
40
0.008000
41
0.008000
0
VERTEX
8
0
10
0.375000
20
0.112000
0
VERTEX
8
0
10
0.375000
20
0.162000
0
SEQEND
8
0
0
TEXT
8
12632256
10
0.275000
20
0.304000
40
0.048000
41
1.041667
1
C3
0
POLYLINE
8
0
66
1
40
0.008000
41
0.008000
0
VERTEX
8
0
10
0.225000
20
-0.862000
0
VERTEX
8
0
10
1.025000
20
-0.862000
0
VERTEX
8
0
10
1.025000
20
-0.762000
0
VERTEX
8
0
10
0.225000
20
-0.762000
0
VERTEX
8
0
10
0.225000
20
-0.862000
0
SEQEND
8
0
0
POLYLINE
8
0
66
1
40
0.008000
41
0.008000
0
VERTEX
8
0
10
0.225000
20
-0.262000
0
VERTEX
8
0
10
1.025000
20
-0.262000
0
VERTEX
8
0
10
1.025000
20
-0.162000
0
VERTEX
8
0
10
0.225000
20
-0.162000
0
VERTEX
8
0
10
0.225000
20
-0.262000
0
SEQEND
8
0
0
TEXT
8
12632256
10
0.491000
20
-0.136000
40
0.048000
41
1.041667
1
X-DRV
0
CIRCLE
8
12632256
10
0.325000
20
-0.362000
40
0.100000
0
POLYLINE
8
0
66
1
40
0.008000
41
0.008000
0
VERTEX
8
0
10
0.250000
20
-0.312000
0
VERTEX
8
0
10
0.300000
20
-0.312000
0
SEQEND
8
0
0
POLYLINE
8
0
66
1
40
0.008000
41
0.008000
0
VERTEX
8
0
10
0.275000
20
-0.287000
0
VERTEX
8
0
10
0.275000
20
-0.337000
0
SEQEND
8
0
0
TEXT
8
12632256
10
0.275000
20
-0.527000
40
0.048000
41
1.041667
1
C1
0
POLYLINE
8
0
66
1
40
0.008000
41
0.008000
0
VERTEX
8
0
10
1.650000
20
-1.437000
0
VERTEX
8
0
10
1.650000
20
-1.387000
0
SEQEND
8
0
0
POLYLINE
8
0
66
1
40
0.008000
41
0.008000
0
VERTEX
8
0
10
1.600000
20
-1.387000
0
VERTEX
8
0
10
1.700000
20
-1.387000
0
VERTEX
8
0
10
1.700000
20
-0.687000
0
VERTEX
8
0
10
1.600000
20
-0.687000
0
VERTEX
8
0
10
1.600000
20
-1.387000
0
SEQEND
8
0
0
POLYLINE
8
0
66
1
40
0.008000
41
0.008000
0
VERTEX
8
0
10
1.650000
20
-0.637000
0
VERTEX
8
0
10
1.650000
20
-0.687000
0
SEQEND
8
0
0
TEXT
8
12632256
10
1.590000
20
-1.112000
40
0.048000
41
1.041667
50
90.000000
1
FU1
0
POLYLINE
8
0
66
1
40
0.008000
41
0.008000
0
VERTEX
8
0
10
1.475000
20
1.537000
0
VERTEX
8
0
10
1.675000
20
1.537000
0
VERTEX
8
0
10
1.675000
20
1.637000
0
VERTEX
8
0
10
1.475000
20
1.637000
0
VERTEX
8
0
10
1.475000
20
1.537000
0
SEQEND
8
0
0
TEXT
8
12632256
10
1.500000
20
1.647000
40
0.048000
41
1.041667
1
FAN
0
POLYLINE
8
0
66
1
40
0.008000
41
0.008000
0
VERTEX
8
0
10
-2.750000
20
1.937000
0
VERTEX
8
0
10
-2.050000
20
1.937000
0
VERTEX
8
0
10
-2.050000
20
2.037000
0
VERTEX
8
0
10
-2.750000
20
2.037000
0
VERTEX
8
0
10
-2.750000
20
1.937000
0
SEQEND
8
0
0
TEXT
8
12632256
10
-2.500000
20
1.872000
40
0.048000
41
1.041667
1
EXP0
0
POLYLINE
8
0
66
1
40
0.008000
41
0.008000
0
VERTEX
8
0
10
-2.050000
20
1.937000
0
VERTEX
8
0
10
-1.350000
20
1.937000
0
VERTEX
8
0
10
-1.350000
20
2.037000
0
VERTEX
8
0
10
-2.050000
20
2.037000
0
VERTEX
8
0
10
-2.050000
20
1.937000
0
SEQEND
8
0
0
TEXT
8
12632256
10
-1.800000
20
1.872000
40
0.048000
41
1.041667
1
EXP1
0
POLYLINE
8
0
66
1
40
0.008000
41
0.008000
0
VERTEX
8
0
10
-2.775000
20
0.187000
0
VERTEX
8
0
10
-1.875000
20
0.187000
0
VERTEX
8
0
10
-1.875000
20
0.287000
0
VERTEX
8
0
10
-2.775000
20
0.287000
0
VERTEX
8
0
10
-2.775000
20
0.187000
0
SEQEND
8
0
0
TEXT
8
12632256
10
-2.400000
20
0.297000
40
0.048000
41
1.041667
1
LCD
0
POLYLINE
8
0
66
1
40
0.008000
41
0.008000
0
VERTEX
8
0
10
-1.875000
20
0.187000
0
VERTEX
8
0
10
-1.475000
20
0.187000
0
VERTEX
8
0
10
-1.475000
20
0.287000
0
VERTEX
8
0
10
-1.875000
20
0.287000
0
VERTEX
8
0
10
-1.875000
20
0.187000
0
SEQEND
8
0
0
TEXT
8
12632256
10
-1.850000
20
0.297000
40
0.048000
41
1.041667
1
LCD-EXT
0
POLYLINE
8
0
66
1
40
0.008000
41
0.008000
0
VERTEX
8
0
10
-0.800000
20
-1.512000
0
VERTEX
8
0
10
-0.800000
20
1.037000
0
SEQEND
8
0
0
POLYLINE
8
0
66
1
40
0.008000
41
0.008000
0
VERTEX
8
0
10
2.100000
20
1.862000
0
VERTEX
8
0
10
-2.650000
20
1.862000
0
SEQEND
8
0
0
POLYLINE
8
0
66
1
40
0.008000
41
0.008000
0
VERTEX
8
0
10
1.425000
20
0.762000
0
VERTEX
8
0
10
1.900000
20
0.762000
0
SEQEND
8
0
0
POLYLINE
8
0
66
1
40
0.008000
41
0.008000
0
VERTEX
8
0
10
1.325000
20
0.537000
0
VERTEX
8
0
10
1.775000
20
0.537000
0
SEQEND
8
0
0
POLYLINE
8
0
66
1
40
0.008000
41
0.008000
0
VERTEX
8
0
10
0.600000
20
0.662000
0
VERTEX
8
0
10
0.600000
20
0.037000
0
SEQEND
8
0
0
POLYLINE
8
0
66
1
40
0.008000
41
0.008000
0
VERTEX
8
0
10
0.500000
20
0.562000
0
VERTEX
8
0
10
0.500000
20
0.187000
0
SEQEND
8
0
0
POLYLINE
8
0
66
1
40
0.008000
41
0.008000
0
VERTEX
8
0
10
0.925000
20
-0.087000
0
VERTEX
8
0
10
1.300000
20
-0.087000
0
SEQEND
8
0
0
POLYLINE
8
0
66
1
40
0.008000
41
0.008000
0
VERTEX
8
0
10
0.025000
20
-0.137000
0
VERTEX
8
0
10
0.025000
20
-0.887000
0
SEQEND
8
0
0
POLYLINE
8
0
66
1
40
0.008000
41
0.008000
0
VERTEX
8
0
10
2.250000
20
-0.387000
0
VERTEX
8
0
10
1.100000
20
-0.387000
0
SEQEND
8
0
0
POLYLINE
8
0
66
1
40
0.008000
41
0.008000
0
VERTEX
8
0
10
1.900000
20
-0.587000
0
VERTEX
8
0
10
2.400000
20
-0.587000
0
SEQEND
8
0
0
POLYLINE
8
0
66
1
40
0.008000
41
0.008000
0
VERTEX
8
0
10
2.000000
20
-1.112000
0
VERTEX
8
0
10
2.300000
20
-1.112000
0
SEQEND
8
0
0
POLYLINE
8
0
66
1
40
0.008000
41
0.008000
0
VERTEX
8
0
10
0.250000
20
-1.637000
0
VERTEX
8
0
10
0.800000
20
-1.087000
0
SEQEND
8
0
0
POLYLINE
8
0
66
1
40
0.008000
41
0.008000
0
VERTEX
8
0
10
1.900000
20
1.587000
0
VERTEX
8
0
10
2.400000
20
1.587000
0
SEQEND
8
0
0
TEXT
8
12632256
10
1.225000
20
1.372000
40
0.080000
41
1.250000
1
RepRap Mendel
0
TEXT
8
12632256
10
1.225000
20
1.272000
40
0.080000
41
1.250000
1
ALL-IN-ONE
0
TEXT
8
12632256
10
1.225000
20
1.172000
40
0.080000
41
1.250000
1
MOTHERBOARD
0
TEXT
8
12632256
10
1.225000
20
1.072000
40
0.080000
41
1.250000
1
V1.2
0
TEXT
8
12632256
10
1.225000
20
0.972000
40
0.080000
41
1.250000
1
BY: PAUL MUMBY
0
POLYLINE
8
0
66
1
40
0.008000
41
0.008000
0
VERTEX
8
0
10
-0.200000
20
-1.487000
0
VERTEX
8
0
10
-0.210000
20
-1.485000
0
VERTEX
8
0
10
-0.220000
20
-1.479000
0
VERTEX
8
0
10
-0.228000
20
-1.470000
0
VERTEX
8
0
10
-0.236000
20
-1.458000
0
VERTEX
8
0
10
-0.242000
20
-1.443000
0
VERTEX
8
0
10
-0.246000
20
-1.426000
0
VERTEX
8
0
10
-0.250000
20
-1.387000
0
SEQEND
8
0
0
POLYLINE
8
0
66
1
40
0.008000
41
0.008000
0
VERTEX
8
0
10
-0.200000
20
-1.287000
0
VERTEX
8
0
10
-0.210000
20
-1.289000
0
VERTEX
8
0
10
-0.220000
20
-1.295000
0
VERTEX
8
0
10
-0.228000
20
-1.304000
0
VERTEX
8
0
10
-0.236000
20
-1.316000
0
VERTEX
8
0
10
-0.242000
20
-1.331000
0
VERTEX
8
0
10
-0.246000
20
-1.348000
0
VERTEX
8
0
10
-0.250000
20
-1.387000
0
SEQEND
8
0
0
POLYLINE
8
0
66
1
40
0.008000
41
0.008000
0
VERTEX
8
0
10
-0.200000
20
-1.487000
0
VERTEX
8
0
10
-0.190000
20
-1.485000
0
VERTEX
8
0
10
-0.180000
20
-1.479000
0
VERTEX
8
0
10
-0.172000
20
-1.470000
0
VERTEX
8
0
10
-0.164000
20
-1.458000
0
VERTEX
8
0
10
-0.158000
20
-1.443000
0
VERTEX
8
0
10
-0.154000
20
-1.426000
0
VERTEX
8
0
10
-0.150000
20
-1.387000
0
SEQEND
8
0
0
POLYLINE
8
0
66
1
40
0.008000
41
0.008000
0
VERTEX
8
0
10
-0.200000
20
-1.287000
0
VERTEX
8
0
10
-0.190000
20
-1.289000
0
VERTEX
8
0
10
-0.180000
20
-1.295000
0
VERTEX
8
0
10
-0.172000
20
-1.304000
0
VERTEX
8
0
10
-0.164000
20
-1.316000
0
VERTEX
8
0
10
-0.158000
20
-1.331000
0
VERTEX
8
0
10
-0.154000
20
-1.348000
0
VERTEX
8
0
10
-0.150000
20
-1.387000
0
SEQEND
8
0
0
TEXT
8
12632256
10
-0.110000
20
-1.287000
40
0.048000
41
1.041667
50
90.000000
1
C9
0
POLYLINE
8
0
66
1
40
0.008000
41
0.008000
0
VERTEX
8
0
10
-0.050000
20
-1.587000
0
VERTEX
8
0
10
-0.060000
20
-1.585000
0
VERTEX
8
0
10
-0.070000
20
-1.579000
0
VERTEX
8
0
10
-0.078000
20
-1.570000
0
VERTEX
8
0
10
-0.086000
20
-1.558000
0
VERTEX
8
0
10
-0.092000
20
-1.543000
0
VERTEX
8
0
10
-0.096000
20
-1.526000
0
VERTEX
8
0
10
-0.100000
20
-1.487000
0
SEQEND
8
0
0
POLYLINE
8
0
66
1
40
0.008000
41
0.008000
0
VERTEX
8
0
10
-0.050000
20
-1.387000
0
VERTEX
8
0
10
-0.060000
20
-1.389000
0
VERTEX
8
0
10
-0.070000
20
-1.395000
0
VERTEX
8
0
10
-0.078000
20
-1.404000
0
VERTEX
8
0
10
-0.086000
20
-1.416000
0
VERTEX
8
0
10
-0.092000
20
-1.431000
0
VERTEX
8
0
10
-0.096000
20
-1.448000
0
VERTEX
8
0
10
-0.100000
20
-1.487000
0
SEQEND
8
0
0
POLYLINE
8
0
66
1
40
0.008000
41
0.008000
0
VERTEX
8
0
10
-0.050000
20
-1.587000
0
VERTEX
8
0
10
-0.040000
20
-1.585000
0
VERTEX
8
0
10
-0.030000
20
-1.579000
0
VERTEX
8
0
10
-0.022000
20
-1.570000
0
VERTEX
8
0
10
-0.014000
20
-1.558000
0
VERTEX
8
0
10
-0.008000
20
-1.543000
0
VERTEX
8
0
10
-0.004000
20
-1.526000
0
VERTEX
8
0
10
0.000000
20
-1.487000
0
SEQEND
8
0
0
POLYLINE
8
0
66
1
40
0.008000
41
0.008000
0
VERTEX
8
0
10
-0.050000
20
-1.387000
0
VERTEX
8
0
10
-0.040000
20
-1.389000
0
VERTEX
8
0
10
-0.030000
20
-1.395000
0
VERTEX
8
0
10
-0.022000
20
-1.404000
0
VERTEX
8
0
10
-0.014000
20
-1.416000
0
VERTEX
8
0
10
-0.008000
20
-1.431000
0
VERTEX
8
0
10
-0.004000
20
-1.448000
0
VERTEX
8
0
10
0.000000
20
-1.487000
0
SEQEND
8
0
0
TEXT
8
12632256
10
-0.110000
20
-1.662000
40
0.048000
41
1.041667
50
90.000000
1
C10
0
POLYLINE
8
0
66
1
40
0.008000
41
0.008000
0
VERTEX
8
0
10
-1.850000
20
-1.162000
0
VERTEX
8
0
10
-1.050000
20
-1.162000
0
VERTEX
8
0
10
-1.050000
20
-1.062000
0
VERTEX
8
0
10
-1.850000
20
-1.062000
0
VERTEX
8
0
10
-1.850000
20
-1.162000
0
SEQEND
8
0
0
TEXT
8
12632256
10
-1.600000
20
-1.052000
40
0.048000
41
1.041667
1
KEYPAD
0
POLYLINE
8
0
66
1
40
0.008000
41
0.008000
0
VERTEX
8
0
10
-2.650000
20
-1.112000
0
VERTEX
8
0
10
-1.950000
20
-1.112000
0
SEQEND
8
0
0
POLYLINE
8
0
66
1
40
0.008000
41
0.008000
0
VERTEX
8
0
10
-1.900000
20
-1.362000
0
VERTEX
8
0
10
-1.700000
20
-1.362000
0
SEQEND
8
0
0
POLYLINE
8
0
66
1
40
0.008000
41
0.008000
0
VERTEX
8
0
10
-2.000000
20
-1.362000
0
VERTEX
8
0
10
-2.000000
20
-1.612000
0
SEQEND
8
0
0
POLYLINE
8
0
66
1
40
0.008000
41
0.008000
0
VERTEX
8
0
10
-2.125000
20
-1.387000
0
VERTEX
8
0
10
-2.125000
20
-1.862000
0
SEQEND
8
0
0
POLYLINE
8
0
66
1
40
0.008000
41
0.008000
0
VERTEX
8
0
10
-2.375000
20
-1.437000
0
VERTEX
8
0
10
-2.375000
20
-1.712000
0
SEQEND
8
0
0
POLYLINE
8
0
66
1
40
0.008000
41
0.008000
0
VERTEX
8
0
10
1.300000
20
-0.212000
0
VERTEX
8
0
10
1.775000
20
-0.212000
0
SEQEND
8
0
0
POLYLINE
8
0
66
1
40
0.008000
41
0.008000
0
VERTEX
8
0
10
2.350000
20
-1.637000
0
VERTEX
8
0
10
2.350000
20
-1.587000
0
SEQEND
8
0
0
POLYLINE
8
0
66
1
40
0.008000
41
0.008000
0
VERTEX
8
0
10
2.325000
20
-1.587000
0
VERTEX
8
0
10
2.375000
20
-1.587000
0
VERTEX
8
0
10
2.375000
20
-1.387000
0
VERTEX
8
0
10
2.325000
20
-1.387000
0
VERTEX
8
0
10
2.325000
20
-1.587000
0
SEQEND
8
0
0
POLYLINE
8
0
66
1
40
0.008000
41
0.008000
0
VERTEX
8
0
10
2.350000
20
-1.387000
0
VERTEX
8
0
10
2.350000
20
-1.337000
0
SEQEND
8
0
0
TEXT
8
12632256
10
2.315000
20
-1.537000
40
0.048000
41
1.041667
50
90.000000
1
R6
0
POLYLINE
8
0
66
1
40
0.008000
41
0.008000
0
VERTEX
8
0
10
2.250000
20
-0.212000
0
VERTEX
8
0
10
2.300000
20
-0.212000
0
SEQEND
8
0
0
POLYLINE
8
0
66
1
40
0.008000
41
0.008000
0
VERTEX
8
0
10
2.300000
20
-0.237000
0
VERTEX
8
0
10
2.500000
20
-0.237000
0
VERTEX
8
0
10
2.500000
20
-0.187000
0
VERTEX
8
0
10
2.300000
20
-0.187000
0
VERTEX
8
0
10
2.300000
20
-0.237000
0
SEQEND
8
0
0
POLYLINE
8
0
66
1
40
0.008000
41
0.008000
0
VERTEX
8
0
10
2.500000
20
-0.212000
0
VERTEX
8
0
10
2.550000
20
-0.212000
0
SEQEND
8
0
0
TEXT
8
12632256
10
2.425000
20
-0.177000
40
0.048000
41
1.041667
1
R7
0
POLYLINE
8
0
66
1
40
0.008000
41
0.008000
0
VERTEX
8
0
10
-0.600000
20
1.637000
0
VERTEX
8
0
10
0.000000
20
1.637000
0
VERTEX
8
0
10
0.000000
20
1.737000
0
VERTEX
8
0
10
-0.600000
20
1.737000
0
VERTEX
8
0
10
-0.600000
20
1.637000
0
SEQEND
8
0
0
TEXT
8
12632256
10
-0.500000
20
1.747000
40
0.048000
41
1.041667
1
ETHERNET
0
POLYLINE
8
0
66
1
40
0.008000
41
0.008000
0
VERTEX
8
0
10
-1.225000
20
1.937000
0
VERTEX
8
0
10
0.075000
20
1.937000
0
SEQEND
8
0
0
POLYLINE
8
0
66
1
40
0.008000
41
0.008000
0
VERTEX
8
0
10
-0.600000
20
1.087000
0
VERTEX
8
0
10
0.000000
20
1.087000
0
VERTEX
8
0
10
0.000000
20
1.187000
0
VERTEX
8
0
10
-0.600000
20
1.187000
0
VERTEX
8
0
10
-0.600000
20
1.087000
0
SEQEND
8
0
0
TEXT
8
12632256
10
-0.350000
20
1.197000
40
0.048000
41
1.041667
1
SD
0
POLYLINE
8
0
66
1
40
0.008000
41
0.008000
0
VERTEX
8
0
10
-1.050000
20
1.552000
0
VERTEX
8
0
10
-0.150000
20
1.552000
0
SEQEND
8
0
0
POLYLINE
8
0
66
1
40
0.008000
41
0.008000
0
VERTEX
8
0
10
-1.150000
20
1.482000
0
VERTEX
8
0
10
-0.250000
20
1.482000
0
SEQEND
8
0
0
POLYLINE
8
0
66
1
40
0.008000
41
0.008000
0
VERTEX
8
0
10
-1.250000
20
1.412000
0
VERTEX
8
0
10
-0.050000
20
1.412000
0
SEQEND
8
0
0
CIRCLE
8
12632256
10
2.775000
20
0.852000
40
0.000000
0
CIRCLE
8
12632256
10
2.775000
20
0.852000
40
0.100000
0
POLYLINE
8
0
66
1
40
0.008000
41
0.008000
0
VERTEX
8
0
10
2.900000
20
0.752000
0
VERTEX
8
0
10
2.850000
20
0.752000
0
SEQEND
8
0
0
POLYLINE
8
0
66
1
40
0.008000
41
0.008000
0
VERTEX
8
0
10
2.875000
20
0.727000
0
VERTEX
8
0
10
2.875000
20
0.777000
0
SEQEND
8
0
0
TEXT
8
12632256
10
2.662000
20
0.969000
40
0.048000
41
1.041667
1
B-LED
0
CIRCLE
8
12632256
10
2.725000
20
-0.287000
40
0.000000
0
CIRCLE
8
12632256
10
2.725000
20
-0.287000
40
0.100000
0
POLYLINE
8
0
66
1
40
0.008000
41
0.008000
0
VERTEX
8
0
10
2.825000
20
-0.162000
0
VERTEX
8
0
10
2.825000
20
-0.212000
0
SEQEND
8
0
0
POLYLINE
8
0
66
1
40
0.008000
41
0.008000
0
VERTEX
8
0
10
2.850000
20
-0.187000
0
VERTEX
8
0
10
2.800000
20
-0.187000
0
SEQEND
8
0
0
TEXT
8
12632256
10
2.858000
20
-0.700000
40
0.048000
41
1.041667
50
90.000000
1
E0-LED
0
POLYLINE
8
0
66
1
40
0.008000
41
0.008000
0
VERTEX
8
0
10
2.865000
20
0.012000
0
VERTEX
8
0
10
2.865000
20
-0.037000
0
SEQEND
8
0
0
POLYLINE
8
0
66
1
40
0.008000
41
0.008000
0
VERTEX
8
0
10
2.840000
20
-0.237000
0
VERTEX
8
0
10
2.890000
20
-0.237000
0
VERTEX
8
0
10
2.890000
20
-0.037000
0
VERTEX
8
0
10
2.840000
20
-0.037000
0
VERTEX
8
0
10
2.840000
20
-0.237000
0
SEQEND
8
0
0
POLYLINE
8
0
66
1
40
0.008000
41
0.008000
0
VERTEX
8
0
10
2.865000
20
-0.237000
0
VERTEX
8
0
10
2.865000
20
-0.287000
0
SEQEND
8
0
0
TEXT
8
12632256
10
2.948000
20
-0.187000
40
0.048000
41
1.041667
50
90.000000
1
R3
0
POLYLINE
8
0
66
1
40
0.008000
41
0.008000
0
VERTEX
8
0
10
2.725000
20
1.237000
0
VERTEX
8
0
10
2.725000
20
1.287000
0
SEQEND
8
0
0
POLYLINE
8
0
66
1
40
0.008000
41
0.008000
0
VERTEX
8
0
10
2.700000
20
1.287000
0
VERTEX
8
0
10
2.750000
20
1.287000
0
VERTEX
8
0
10
2.750000
20
1.487000
0
VERTEX
8
0
10
2.700000
20
1.487000
0
VERTEX
8
0
10
2.700000
20
1.287000
0
SEQEND
8
0
0
POLYLINE
8
0
66
1
40
0.008000
41
0.008000
0
VERTEX
8
0
10
2.725000
20
1.487000
0
VERTEX
8
0
10
2.725000
20
1.537000
0
SEQEND
8
0
0
TEXT
8
12632256
10
2.815000
20
1.337000
40
0.048000
41
1.041667
50
90.000000
1
R8
0
ENDSEC
0
EOF

