ISO-10303-21;
HEADER;
FILE_DESCRIPTION( ( 'Unknown' ), '1' );
FILE_NAME( 'C:/Documents and Settings/CL/Desktop/link2.stp', 'Unknown', ( 'Unknown' ), ( 'Unknown' ), 'XStep 1.0', 'Unknown', ' ' );
FILE_SCHEMA( ( 'CONFIG_CONTROL_DESIGN' ) );
ENDSEC;
DATA;
#1 = DESIGN_CONTEXT( '', #27, 'design' );
#2 = APPLICATION_PROTOCOL_DEFINITION( 'INTERNATIONAL STANDARD', 'config_control_design', 1994, #27 );
#3 = PRODUCT_CATEGORY_RELATIONSHIP( 'NONE', 'NONE', #28, #29 );
#4 = DATE_AND_TIME( #30, #31 );
#5 = DATE_TIME_ROLE( 'creation_date' );
#6 = DATE_TIME_ROLE( 'classification_date' );
#7 = PERSON_AND_ORGANIZATION_ROLE( 'creator' );
#8 = PERSON_AND_ORGANIZATION_ROLE( 'design_supplier' );
#9 = PERSON_AND_ORGANIZATION_ROLE( 'classification_officer' );
#10 = PERSON_AND_ORGANIZATION_ROLE( 'design_owner' );
#11 = APPROVAL_PERSON_ORGANIZATION( #32, #33, #34 );
#12 = APPROVAL_DATE_TIME( #4, #33 );
#13 = CC_DESIGN_APPROVAL( #33, ( #35, #36, #37 ) );
#14 = CC_DESIGN_DATE_AND_TIME_ASSIGNMENT( #4, #5, ( #37 ) );
#15 = CC_DESIGN_DATE_AND_TIME_ASSIGNMENT( #4, #6, ( #35 ) );
#16 = CC_DESIGN_PERSON_AND_ORGANIZATION_ASSIGNMENT( #32, #10, ( #38 ) );
#17 = CC_DESIGN_PERSON_AND_ORGANIZATION_ASSIGNMENT( #32, #7, ( #37 ) );
#18 = CC_DESIGN_PERSON_AND_ORGANIZATION_ASSIGNMENT( #32, #7, ( #36 ) );
#19 = CC_DESIGN_PERSON_AND_ORGANIZATION_ASSIGNMENT( #32, #8, ( #36 ) );
#20 = CC_DESIGN_SECURITY_CLASSIFICATION( #35, ( #36 ) );
#21 = CC_DESIGN_PERSON_AND_ORGANIZATION_ASSIGNMENT( #32, #9, ( #35 ) );
#22 = SHAPE_DEFINITION_REPRESENTATION( #39, #40 );
#23 =  ( GEOMETRIC_REPRESENTATION_CONTEXT( 3 )GLOBAL_UNCERTAINTY_ASSIGNED_CONTEXT( ( #43 ) )GLOBAL_UNIT_ASSIGNED_CONTEXT( ( #45, #46, #47 ) )REPRESENTATION_CONTEXT( 'NONE', 'WORKSPACE' ) );
#27 = APPLICATION_CONTEXT( 'CONFIGURATION CONTROLLED 3D DESIGNS OF MECHANICAL PARTS AND ASSEMBLIES' );
#28 = PRODUCT_CATEGORY( 'part', 'NONE' );
#29 = PRODUCT_RELATED_PRODUCT_CATEGORY( 'detail', ' ', ( #38 ) );
#30 = CALENDAR_DATE( 2010, 12, 8 );
#31 = LOCAL_TIME( 21, 26, 23.0000000000000, #49 );
#32 = PERSON_AND_ORGANIZATION( #50, #51 );
#33 = APPROVAL( #52, 'SOLID MODEL' );
#34 = APPROVAL_ROLE( 'APPROVED' );
#35 = SECURITY_CLASSIFICATION( '', '', #53 );
#36 = PRODUCT_DEFINITION_FORMATION_WITH_SPECIFIED_SOURCE( ' ', 'NONE', #38, .NOT_KNOWN. );
#37 = PRODUCT_DEFINITION( 'NONE', 'NONE', #36, #1 );
#38 = PRODUCT( '1', '1', 'PART-1-DESC', ( #54 ) );
#39 = PRODUCT_DEFINITION_SHAPE( 'NONE', 'NONE', #37 );
#40 = ADVANCED_BREP_SHAPE_REPRESENTATION( '1', ( #55, #56 ), #23 );
#43 = UNCERTAINTY_MEASURE_WITH_UNIT( LENGTH_MEASURE( 0.00100000000000000 ), #45, '', '' );
#45 =  ( CONVERSION_BASED_UNIT( 'MILLIMETRE', #59 )LENGTH_UNIT(  )NAMED_UNIT( #62 ) );
#46 =  ( NAMED_UNIT( #64 )PLANE_ANGLE_UNIT(  )SI_UNIT( $, .RADIAN. ) );
#47 =  ( NAMED_UNIT( #64 )SOLID_ANGLE_UNIT(  )SI_UNIT( $, .STERADIAN. ) );
#49 = COORDINATED_UNIVERSAL_TIME_OFFSET( 8, 0, .BEHIND. );
#50 = PERSON( '', 'UNSPECIFIED', $, $, $, $ );
#51 = ORGANIZATION( 'UNSPECIFIED', 'UNSPECIFIED', 'UNSPECIFIED' );
#52 = APPROVAL_STATUS( 'approved' );
#53 = SECURITY_CLASSIFICATION_LEVEL( 'unclassified' );
#54 = MECHANICAL_CONTEXT( '', #27, 'mechanical' );
#55 = MANIFOLD_SOLID_BREP( '1', #70 );
#56 = AXIS2_PLACEMENT_3D( '', #71, #72, #73 );
#59 = LENGTH_MEASURE_WITH_UNIT( LENGTH_MEASURE( 1.00000000000000 ), #74 );
#62 = DIMENSIONAL_EXPONENTS( 1.00000000000000, 0.000000000000000, 0.000000000000000, 0.000000000000000, 0.000000000000000, 0.000000000000000, 0.000000000000000 );
#64 = DIMENSIONAL_EXPONENTS( 0.000000000000000, 0.000000000000000, 0.000000000000000, 0.000000000000000, 0.000000000000000, 0.000000000000000, 0.000000000000000 );
#70 = CLOSED_SHELL( '', ( #75, #76, #77, #78, #79, #80, #81, #82, #83, #84, #85, #86, #87 ) );
#71 = CARTESIAN_POINT( '', ( 0.000000000000000, 0.000000000000000, 0.000000000000000 ) );
#72 = DIRECTION( '', ( 0.000000000000000, 0.000000000000000, 1.00000000000000 ) );
#73 = DIRECTION( '', ( 1.00000000000000, 0.000000000000000, 0.000000000000000 ) );
#74 =  ( NAMED_UNIT( #62 )LENGTH_UNIT(  )SI_UNIT( .MILLI., .METRE. ) );
#75 = ADVANCED_FACE( '', ( #89 ), #90, .T. );
#76 = ADVANCED_FACE( '', ( #91, #92 ), #93, .F. );
#77 = ADVANCED_FACE( '', ( #94, #95, #96, #97, #98, #99 ), #100, .F. );
#78 = ADVANCED_FACE( '', ( #101, #102, #103, #104, #105, #106 ), #107, .T. );
#79 = ADVANCED_FACE( '', ( #108, #109 ), #110, .F. );
#80 = ADVANCED_FACE( '', ( #111, #112 ), #113, .F. );
#81 = ADVANCED_FACE( '', ( #114 ), #115, .T. );
#82 = ADVANCED_FACE( '', ( #116 ), #117, .T. );
#83 = ADVANCED_FACE( '', ( #118, #119 ), #120, .F. );
#84 = ADVANCED_FACE( '', ( #121, #122 ), #123, .F. );
#85 = ADVANCED_FACE( '', ( #124 ), #125, .F. );
#86 = ADVANCED_FACE( '', ( #126 ), #127, .T. );
#87 = ADVANCED_FACE( '', ( #128 ), #129, .F. );
#89 = FACE_OUTER_BOUND( '', #130, .T. );
#90 = CYLINDRICAL_SURFACE( '', #131, 6.35000000000000 );
#91 = FACE_OUTER_BOUND( '', #132, .T. );
#92 = FACE_OUTER_BOUND( '', #133, .T. );
#93 = CYLINDRICAL_SURFACE( '', #134, 3.17500000000000 );
#94 = FACE_BOUND( '', #135, .T. );
#95 = FACE_BOUND( '', #136, .T. );
#96 = FACE_BOUND( '', #137, .T. );
#97 = FACE_OUTER_BOUND( '', #138, .T. );
#98 = FACE_BOUND( '', #139, .T. );
#99 = FACE_BOUND( '', #140, .T. );
#100 = PLANE( '', #141 );
#101 = FACE_BOUND( '', #142, .T. );
#102 = FACE_BOUND( '', #143, .T. );
#103 = FACE_BOUND( '', #144, .T. );
#104 = FACE_OUTER_BOUND( '', #145, .T. );
#105 = FACE_BOUND( '', #146, .T. );
#106 = FACE_BOUND( '', #147, .T. );
#107 = PLANE( '', #148 );
#108 = FACE_OUTER_BOUND( '', #149, .T. );
#109 = FACE_OUTER_BOUND( '', #150, .T. );
#110 = CYLINDRICAL_SURFACE( '', #151, 3.17500000000000 );
#111 = FACE_OUTER_BOUND( '', #152, .T. );
#112 = FACE_OUTER_BOUND( '', #153, .T. );
#113 = CYLINDRICAL_SURFACE( '', #154, 3.17500000000000 );
#114 = FACE_OUTER_BOUND( '', #155, .T. );
#115 = CYLINDRICAL_SURFACE( '', #156, 19.0500000000000 );
#116 = FACE_OUTER_BOUND( '', #157, .T. );
#117 = CYLINDRICAL_SURFACE( '', #158, 6.35000000000000 );
#118 = FACE_OUTER_BOUND( '', #159, .T. );
#119 = FACE_OUTER_BOUND( '', #160, .T. );
#120 = CYLINDRICAL_SURFACE( '', #161, 3.17500000000000 );
#121 = FACE_OUTER_BOUND( '', #162, .T. );
#122 = FACE_OUTER_BOUND( '', #163, .T. );
#123 = CYLINDRICAL_SURFACE( '', #164, 3.17500000000000 );
#124 = FACE_OUTER_BOUND( '', #165, .T. );
#125 = PLANE( '', #166 );
#126 = FACE_OUTER_BOUND( '', #167, .T. );
#127 = CYLINDRICAL_SURFACE( '', #168, 19.0500000000000 );
#128 = FACE_OUTER_BOUND( '', #169, .T. );
#129 = PLANE( '', #170 );
#130 = EDGE_LOOP( '', ( #171, #172, #173, #174 ) );
#131 = AXIS2_PLACEMENT_3D( '', #175, #176, #177 );
#132 = EDGE_LOOP( '', ( #178 ) );
#133 = EDGE_LOOP( '', ( #179 ) );
#134 = AXIS2_PLACEMENT_3D( '', #180, #181, #182 );
#135 = EDGE_LOOP( '', ( #183 ) );
#136 = EDGE_LOOP( '', ( #184 ) );
#137 = EDGE_LOOP( '', ( #185 ) );
#138 = EDGE_LOOP( '', ( #186, #187, #188, #189, #190, #191 ) );
#139 = EDGE_LOOP( '', ( #192 ) );
#140 = EDGE_LOOP( '', ( #193 ) );
#141 = AXIS2_PLACEMENT_3D( '', #194, #195, #196 );
#142 = EDGE_LOOP( '', ( #197 ) );
#143 = EDGE_LOOP( '', ( #198 ) );
#144 = EDGE_LOOP( '', ( #199 ) );
#145 = EDGE_LOOP( '', ( #200, #201, #202, #203, #204, #205 ) );
#146 = EDGE_LOOP( '', ( #206 ) );
#147 = EDGE_LOOP( '', ( #207 ) );
#148 = AXIS2_PLACEMENT_3D( '', #208, #209, #210 );
#149 = EDGE_LOOP( '', ( #211 ) );
#150 = EDGE_LOOP( '', ( #212 ) );
#151 = AXIS2_PLACEMENT_3D( '', #213, #214, #215 );
#152 = EDGE_LOOP( '', ( #216 ) );
#153 = EDGE_LOOP( '', ( #217 ) );
#154 = AXIS2_PLACEMENT_3D( '', #218, #219, #220 );
#155 = EDGE_LOOP( '', ( #221, #222, #223, #224 ) );
#156 = AXIS2_PLACEMENT_3D( '', #225, #226, #227 );
#157 = EDGE_LOOP( '', ( #228, #229, #230, #231 ) );
#158 = AXIS2_PLACEMENT_3D( '', #232, #233, #234 );
#159 = EDGE_LOOP( '', ( #235 ) );
#160 = EDGE_LOOP( '', ( #236 ) );
#161 = AXIS2_PLACEMENT_3D( '', #237, #238, #239 );
#162 = EDGE_LOOP( '', ( #240 ) );
#163 = EDGE_LOOP( '', ( #241 ) );
#164 = AXIS2_PLACEMENT_3D( '', #242, #243, #244 );
#165 = EDGE_LOOP( '', ( #245, #246, #247, #248 ) );
#166 = AXIS2_PLACEMENT_3D( '', #249, #250, #251 );
#167 = EDGE_LOOP( '', ( #252, #253, #254, #255 ) );
#168 = AXIS2_PLACEMENT_3D( '', #256, #257, #258 );
#169 = EDGE_LOOP( '', ( #259, #260, #261, #262 ) );
#170 = AXIS2_PLACEMENT_3D( '', #263, #264, #265 );
#171 = ORIENTED_EDGE( '', *, *, #266, .T. );
#172 = ORIENTED_EDGE( '', *, *, #267, .F. );
#173 = ORIENTED_EDGE( '', *, *, #268, .F. );
#174 = ORIENTED_EDGE( '', *, *, #269, .T. );
#175 = CARTESIAN_POINT( '', ( -6.02567964755873E-015, 152.400000000000, 2.38125000000000 ) );
#176 = DIRECTION( '', ( 0.000000000000000, 0.000000000000000, -1.00000000000000 ) );
#177 = DIRECTION( '', ( -1.00000000000000, 0.000000000000000, 0.000000000000000 ) );
#178 = ORIENTED_EDGE( '', *, *, #270, .F. );
#179 = ORIENTED_EDGE( '', *, *, #271, .T. );
#180 = CARTESIAN_POINT( '', ( -6.02567964755873E-015, 152.400000000000, 2.38125000000000 ) );
#181 = DIRECTION( '', ( 0.000000000000000, 0.000000000000000, -1.00000000000000 ) );
#182 = DIRECTION( '', ( -1.00000000000000, 0.000000000000000, 0.000000000000000 ) );
#183 = ORIENTED_EDGE( '', *, *, #272, .T. );
#184 = ORIENTED_EDGE( '', *, *, #273, .F. );
#185 = ORIENTED_EDGE( '', *, *, #274, .F. );
#186 = ORIENTED_EDGE( '', *, *, #266, .F. );
#187 = ORIENTED_EDGE( '', *, *, #275, .F. );
#188 = ORIENTED_EDGE( '', *, *, #276, .F. );
#189 = ORIENTED_EDGE( '', *, *, #277, .F. );
#190 = ORIENTED_EDGE( '', *, *, #278, .F. );
#191 = ORIENTED_EDGE( '', *, *, #279, .F. );
#192 = ORIENTED_EDGE( '', *, *, #271, .F. );
#193 = ORIENTED_EDGE( '', *, *, #280, .F. );
#194 = CARTESIAN_POINT( '', ( -6.02567964755873E-015, 152.400000000000, 0.000000000000000 ) );
#195 = DIRECTION( '', ( 0.000000000000000, 0.000000000000000, 1.00000000000000 ) );
#196 = DIRECTION( '', ( 1.00000000000000, 0.000000000000000, 0.000000000000000 ) );
#197 = ORIENTED_EDGE( '', *, *, #281, .F. );
#198 = ORIENTED_EDGE( '', *, *, #282, .T. );
#199 = ORIENTED_EDGE( '', *, *, #283, .T. );
#200 = ORIENTED_EDGE( '', *, *, #268, .T. );
#201 = ORIENTED_EDGE( '', *, *, #284, .T. );
#202 = ORIENTED_EDGE( '', *, *, #285, .T. );
#203 = ORIENTED_EDGE( '', *, *, #286, .T. );
#204 = ORIENTED_EDGE( '', *, *, #287, .T. );
#205 = ORIENTED_EDGE( '', *, *, #288, .T. );
#206 = ORIENTED_EDGE( '', *, *, #270, .T. );
#207 = ORIENTED_EDGE( '', *, *, #289, .T. );
#208 = CARTESIAN_POINT( '', ( -6.02567964755873E-015, 152.400000000000, 2.38125000000000 ) );
#209 = DIRECTION( '', ( 0.000000000000000, 0.000000000000000, 1.00000000000000 ) );
#210 = DIRECTION( '', ( 1.00000000000000, 0.000000000000000, 0.000000000000000 ) );
#211 = ORIENTED_EDGE( '', *, *, #282, .F. );
#212 = ORIENTED_EDGE( '', *, *, #273, .T. );
#213 = CARTESIAN_POINT( '', ( 0.000000000000000, 76.2000000000000, 2.38125000000000 ) );
#214 = DIRECTION( '', ( 0.000000000000000, 0.000000000000000, -1.00000000000000 ) );
#215 = DIRECTION( '', ( -1.00000000000000, 0.000000000000000, 0.000000000000000 ) );
#216 = ORIENTED_EDGE( '', *, *, #283, .F. );
#217 = ORIENTED_EDGE( '', *, *, #274, .T. );
#218 = CARTESIAN_POINT( '', ( 0.000000000000000, 0.000000000000000, 2.38125000000000 ) );
#219 = DIRECTION( '', ( 0.000000000000000, 0.000000000000000, -1.00000000000000 ) );
#220 = DIRECTION( '', ( -1.00000000000000, 0.000000000000000, 0.000000000000000 ) );
#221 = ORIENTED_EDGE( '', *, *, #275, .T. );
#222 = ORIENTED_EDGE( '', *, *, #269, .F. );
#223 = ORIENTED_EDGE( '', *, *, #288, .F. );
#224 = ORIENTED_EDGE( '', *, *, #290, .T. );
#225 = CARTESIAN_POINT( '', ( 2.33103467084383E-015, 139.700000000000, 2.38125000000000 ) );
#226 = DIRECTION( '', ( 0.000000000000000, 0.000000000000000, -1.00000000000000 ) );
#227 = DIRECTION( '', ( -1.00000000000000, 0.000000000000000, 0.000000000000000 ) );
#228 = ORIENTED_EDGE( '', *, *, #278, .T. );
#229 = ORIENTED_EDGE( '', *, *, #291, .F. );
#230 = ORIENTED_EDGE( '', *, *, #285, .F. );
#231 = ORIENTED_EDGE( '', *, *, #292, .T. );
#232 = CARTESIAN_POINT( '', ( -6.01732205729455E-015, 0.000000000000000, 2.38125000000000 ) );
#233 = DIRECTION( '', ( 0.000000000000000, 0.000000000000000, -1.00000000000000 ) );
#234 = DIRECTION( '', ( -1.00000000000000, 0.000000000000000, 0.000000000000000 ) );
#235 = ORIENTED_EDGE( '', *, *, #289, .F. );
#236 = ORIENTED_EDGE( '', *, *, #280, .T. );
#237 = CARTESIAN_POINT( '', ( 0.000000000000000, 114.300000000000, 2.38125000000000 ) );
#238 = DIRECTION( '', ( 0.000000000000000, 0.000000000000000, -1.00000000000000 ) );
#239 = DIRECTION( '', ( -1.00000000000000, 0.000000000000000, 0.000000000000000 ) );
#240 = ORIENTED_EDGE( '', *, *, #281, .T. );
#241 = ORIENTED_EDGE( '', *, *, #272, .F. );
#242 = CARTESIAN_POINT( '', ( 0.000000000000000, 38.1000000000000, 2.38125000000000 ) );
#243 = DIRECTION( '', ( 0.000000000000000, 0.000000000000000, -1.00000000000000 ) );
#244 = DIRECTION( '', ( -1.00000000000000, 0.000000000000000, 0.000000000000000 ) );
#245 = ORIENTED_EDGE( '', *, *, #279, .T. );
#246 = ORIENTED_EDGE( '', *, *, #292, .F. );
#247 = ORIENTED_EDGE( '', *, *, #284, .F. );
#248 = ORIENTED_EDGE( '', *, *, #267, .T. );
#249 = CARTESIAN_POINT( '', ( -6.35000000000000, 152.400000000000, 2.38125000000000 ) );
#250 = DIRECTION( '', ( 1.00000000000000, 0.000000000000000, 0.000000000000000 ) );
#251 = DIRECTION( '', ( 0.000000000000000, 1.00000000000000, 0.000000000000000 ) );
#252 = ORIENTED_EDGE( '', *, *, #277, .T. );
#253 = ORIENTED_EDGE( '', *, *, #293, .F. );
#254 = ORIENTED_EDGE( '', *, *, #286, .F. );
#255 = ORIENTED_EDGE( '', *, *, #291, .T. );
#256 = CARTESIAN_POINT( '', ( 2.33103467084383E-015, 12.7000000000000, 2.38125000000000 ) );
#257 = DIRECTION( '', ( 0.000000000000000, 0.000000000000000, -1.00000000000000 ) );
#258 = DIRECTION( '', ( -1.00000000000000, 0.000000000000000, 0.000000000000000 ) );
#259 = ORIENTED_EDGE( '', *, *, #276, .T. );
#260 = ORIENTED_EDGE( '', *, *, #290, .F. );
#261 = ORIENTED_EDGE( '', *, *, #287, .F. );
#262 = ORIENTED_EDGE( '', *, *, #293, .T. );
#263 = CARTESIAN_POINT( '', ( 19.0500000000000, 139.700000000000, 2.38125000000000 ) );
#264 = DIRECTION( '', ( -1.00000000000000, 0.000000000000000, 0.000000000000000 ) );
#265 = DIRECTION( '', ( 0.000000000000000, 0.000000000000000, 1.00000000000000 ) );
#266 = EDGE_CURVE( '', #294, #295, #296, .T. );
#267 = EDGE_CURVE( '', #297, #295, #298, .T. );
#268 = EDGE_CURVE( '', #299, #297, #300, .T. );
#269 = EDGE_CURVE( '', #299, #294, #301, .T. );
#270 = EDGE_CURVE( '', #302, #302, #303, .T. );
#271 = EDGE_CURVE( '', #304, #304, #305, .T. );
#272 = EDGE_CURVE( '', #306, #306, #307, .T. );
#273 = EDGE_CURVE( '', #308, #308, #309, .T. );
#274 = EDGE_CURVE( '', #310, #310, #311, .T. );
#275 = EDGE_CURVE( '', #312, #294, #313, .T. );
#276 = EDGE_CURVE( '', #314, #312, #315, .T. );
#277 = EDGE_CURVE( '', #316, #314, #317, .T. );
#278 = EDGE_CURVE( '', #318, #316, #319, .T. );
#279 = EDGE_CURVE( '', #295, #318, #320, .T. );
#280 = EDGE_CURVE( '', #321, #321, #322, .T. );
#281 = EDGE_CURVE( '', #323, #323, #324, .T. );
#282 = EDGE_CURVE( '', #325, #325, #326, .T. );
#283 = EDGE_CURVE( '', #327, #327, #328, .T. );
#284 = EDGE_CURVE( '', #297, #329, #330, .T. );
#285 = EDGE_CURVE( '', #329, #331, #332, .T. );
#286 = EDGE_CURVE( '', #331, #333, #334, .T. );
#287 = EDGE_CURVE( '', #333, #335, #336, .T. );
#288 = EDGE_CURVE( '', #335, #299, #337, .T. );
#289 = EDGE_CURVE( '', #338, #338, #339, .T. );
#290 = EDGE_CURVE( '', #335, #312, #340, .T. );
#291 = EDGE_CURVE( '', #331, #316, #341, .T. );
#292 = EDGE_CURVE( '', #329, #318, #342, .T. );
#293 = EDGE_CURVE( '', #333, #314, #343, .T. );
#294 = VERTEX_POINT( '', #344 );
#295 = VERTEX_POINT( '', #345 );
#296 = CIRCLE( '', #346, 6.35000000000000 );
#297 = VERTEX_POINT( '', #347 );
#298 = LINE( '', #348, #349 );
#299 = VERTEX_POINT( '', #350 );
#300 = CIRCLE( '', #351, 6.35000000000000 );
#301 = LINE( '', #352, #353 );
#302 = VERTEX_POINT( '', #354 );
#303 = CIRCLE( '', #355, 3.17500000000000 );
#304 = VERTEX_POINT( '', #356 );
#305 = CIRCLE( '', #357, 3.17500000000000 );
#306 = VERTEX_POINT( '', #358 );
#307 = CIRCLE( '', #359, 3.17500000000000 );
#308 = VERTEX_POINT( '', #360 );
#309 = CIRCLE( '', #361, 3.17500000000000 );
#310 = VERTEX_POINT( '', #362 );
#311 = CIRCLE( '', #363, 3.17500000000000 );
#312 = VERTEX_POINT( '', #364 );
#313 = CIRCLE( '', #365, 19.0500000000000 );
#314 = VERTEX_POINT( '', #366 );
#315 = LINE( '', #367, #368 );
#316 = VERTEX_POINT( '', #369 );
#317 = CIRCLE( '', #370, 19.0500000000000 );
#318 = VERTEX_POINT( '', #371 );
#319 = CIRCLE( '', #372, 6.35000000000000 );
#320 = LINE( '', #373, #374 );
#321 = VERTEX_POINT( '', #375 );
#322 = CIRCLE( '', #376, 3.17500000000000 );
#323 = VERTEX_POINT( '', #377 );
#324 = CIRCLE( '', #378, 3.17500000000000 );
#325 = VERTEX_POINT( '', #379 );
#326 = CIRCLE( '', #380, 3.17500000000000 );
#327 = VERTEX_POINT( '', #381 );
#328 = CIRCLE( '', #382, 3.17500000000000 );
#329 = VERTEX_POINT( '', #383 );
#330 = LINE( '', #384, #385 );
#331 = VERTEX_POINT( '', #386 );
#332 = CIRCLE( '', #387, 6.35000000000000 );
#333 = VERTEX_POINT( '', #388 );
#334 = CIRCLE( '', #389, 19.0500000000000 );
#335 = VERTEX_POINT( '', #390 );
#336 = LINE( '', #391, #392 );
#337 = CIRCLE( '', #393, 19.0500000000000 );
#338 = VERTEX_POINT( '', #394 );
#339 = CIRCLE( '', #395, 3.17500000000000 );
#340 = LINE( '', #396, #397 );
#341 = LINE( '', #398, #399 );
#342 = LINE( '', #400, #401 );
#343 = LINE( '', #402, #403 );
#344 = CARTESIAN_POINT( '', ( 5.83034732689128E-015, 158.750000000000, 0.000000000000000 ) );
#345 = CARTESIAN_POINT( '', ( -6.35000000000000, 152.400000000000, 0.000000000000000 ) );
#346 = AXIS2_PLACEMENT_3D( '', #404, #405, #406 );
#347 = CARTESIAN_POINT( '', ( -6.35000000000000, 152.400000000000, 2.38125000000000 ) );
#348 = CARTESIAN_POINT( '', ( -6.35000000000000, 152.400000000000, 2.38125000000000 ) );
#349 = VECTOR( '', #407, 1000.00000000000 );
#350 = CARTESIAN_POINT( '', ( 5.83034732689128E-015, 158.750000000000, 2.38125000000000 ) );
#351 = AXIS2_PLACEMENT_3D( '', #408, #409, #410 );
#352 = CARTESIAN_POINT( '', ( 5.83034732689128E-015, 158.750000000000, 2.38125000000000 ) );
#353 = VECTOR( '', #411, 1000.00000000000 );
#354 = CARTESIAN_POINT( '', ( 3.17499999999999, 152.400000000000, 2.38125000000000 ) );
#355 = AXIS2_PLACEMENT_3D( '', #412, #413, #414 );
#356 = CARTESIAN_POINT( '', ( 3.17499999999999, 152.400000000000, 0.000000000000000 ) );
#357 = AXIS2_PLACEMENT_3D( '', #415, #416, #417 );
#358 = CARTESIAN_POINT( '', ( 3.17500000000000, 38.1000000000000, 0.000000000000000 ) );
#359 = AXIS2_PLACEMENT_3D( '', #418, #419, #420 );
#360 = CARTESIAN_POINT( '', ( 3.17500000000000, 76.2000000000000, 0.000000000000000 ) );
#361 = AXIS2_PLACEMENT_3D( '', #421, #422, #423 );
#362 = CARTESIAN_POINT( '', ( 3.17500000000000, 0.000000000000000, 0.000000000000000 ) );
#363 = AXIS2_PLACEMENT_3D( '', #424, #425, #426 );
#364 = CARTESIAN_POINT( '', ( 19.0500000000000, 139.700000000000, 0.000000000000000 ) );
#365 = AXIS2_PLACEMENT_3D( '', #427, #428, #429 );
#366 = CARTESIAN_POINT( '', ( 19.0500000000000, 12.7000000000000, 0.000000000000000 ) );
#367 = CARTESIAN_POINT( '', ( 19.0500000000000, 139.700000000000, 0.000000000000000 ) );
#368 = VECTOR( '', #430, 1000.00000000000 );
#369 = CARTESIAN_POINT( '', ( -7.18375960931036E-015, -6.35000000000000, 0.000000000000000 ) );
#370 = AXIS2_PLACEMENT_3D( '', #431, #432, #433 );
#371 = CARTESIAN_POINT( '', ( -6.35000000000000, 0.000000000000000, 0.000000000000000 ) );
#372 = AXIS2_PLACEMENT_3D( '', #434, #435, #436 );
#373 = CARTESIAN_POINT( '', ( -6.35000000000000, 152.400000000000, 0.000000000000000 ) );
#374 = VECTOR( '', #437, 1000.00000000000 );
#375 = CARTESIAN_POINT( '', ( 3.17500000000000, 114.300000000000, 0.000000000000000 ) );
#376 = AXIS2_PLACEMENT_3D( '', #438, #439, #440 );
#377 = CARTESIAN_POINT( '', ( 3.17500000000000, 38.1000000000000, 2.38125000000000 ) );
#378 = AXIS2_PLACEMENT_3D( '', #441, #442, #443 );
#379 = CARTESIAN_POINT( '', ( 3.17500000000000, 76.2000000000000, 2.38125000000000 ) );
#380 = AXIS2_PLACEMENT_3D( '', #444, #445, #446 );
#381 = CARTESIAN_POINT( '', ( 3.17500000000000, 0.000000000000000, 2.38125000000000 ) );
#382 = AXIS2_PLACEMENT_3D( '', #447, #448, #449 );
#383 = CARTESIAN_POINT( '', ( -6.35000000000000, 0.000000000000000, 2.38125000000000 ) );
#384 = CARTESIAN_POINT( '', ( -6.35000000000000, 152.400000000000, 2.38125000000000 ) );
#385 = VECTOR( '', #450, 1000.00000000000 );
#386 = CARTESIAN_POINT( '', ( -7.18375960931036E-015, -6.35000000000000, 2.38125000000000 ) );
#387 = AXIS2_PLACEMENT_3D( '', #451, #452, #453 );
#388 = CARTESIAN_POINT( '', ( 19.0500000000000, 12.7000000000000, 2.38125000000000 ) );
#389 = AXIS2_PLACEMENT_3D( '', #454, #455, #456 );
#390 = CARTESIAN_POINT( '', ( 19.0500000000000, 139.700000000000, 2.38125000000000 ) );
#391 = CARTESIAN_POINT( '', ( 19.0500000000000, 139.700000000000, 2.38125000000000 ) );
#392 = VECTOR( '', #457, 1000.00000000000 );
#393 = AXIS2_PLACEMENT_3D( '', #458, #459, #460 );
#394 = CARTESIAN_POINT( '', ( 3.17500000000000, 114.300000000000, 2.38125000000000 ) );
#395 = AXIS2_PLACEMENT_3D( '', #461, #462, #463 );
#396 = CARTESIAN_POINT( '', ( 19.0500000000000, 139.700000000000, 2.38125000000000 ) );
#397 = VECTOR( '', #464, 1000.00000000000 );
#398 = CARTESIAN_POINT( '', ( -7.18375960931036E-015, -6.35000000000000, 2.38125000000000 ) );
#399 = VECTOR( '', #465, 1000.00000000000 );
#400 = CARTESIAN_POINT( '', ( -6.35000000000000, 0.000000000000000, 2.38125000000000 ) );
#401 = VECTOR( '', #466, 1000.00000000000 );
#402 = CARTESIAN_POINT( '', ( 19.0500000000000, 12.7000000000000, 2.38125000000000 ) );
#403 = VECTOR( '', #467, 1000.00000000000 );
#404 = CARTESIAN_POINT( '', ( -6.02567964755873E-015, 152.400000000000, 0.000000000000000 ) );
#405 = DIRECTION( '', ( 0.000000000000000, 0.000000000000000, 1.00000000000000 ) );
#406 = DIRECTION( '', ( 1.00000000000000, 0.000000000000000, 0.000000000000000 ) );
#407 = DIRECTION( '', ( 0.000000000000000, 0.000000000000000, -1.00000000000000 ) );
#408 = CARTESIAN_POINT( '', ( -6.02567964755873E-015, 152.400000000000, 2.38125000000000 ) );
#409 = DIRECTION( '', ( 0.000000000000000, 0.000000000000000, 1.00000000000000 ) );
#410 = DIRECTION( '', ( 1.00000000000000, 0.000000000000000, 0.000000000000000 ) );
#411 = DIRECTION( '', ( 0.000000000000000, 0.000000000000000, -1.00000000000000 ) );
#412 = CARTESIAN_POINT( '', ( -6.02567964755873E-015, 152.400000000000, 2.38125000000000 ) );
#413 = DIRECTION( '', ( 0.000000000000000, 0.000000000000000, -1.00000000000000 ) );
#414 = DIRECTION( '', ( 1.00000000000000, 0.000000000000000, 0.000000000000000 ) );
#415 = CARTESIAN_POINT( '', ( -6.02567964755873E-015, 152.400000000000, 0.000000000000000 ) );
#416 = DIRECTION( '', ( 0.000000000000000, 0.000000000000000, -1.00000000000000 ) );
#417 = DIRECTION( '', ( 1.00000000000000, 0.000000000000000, 0.000000000000000 ) );
#418 = CARTESIAN_POINT( '', ( 0.000000000000000, 38.1000000000000, 0.000000000000000 ) );
#419 = DIRECTION( '', ( 0.000000000000000, 0.000000000000000, 1.00000000000000 ) );
#420 = DIRECTION( '', ( 1.00000000000000, 0.000000000000000, 0.000000000000000 ) );
#421 = CARTESIAN_POINT( '', ( 0.000000000000000, 76.2000000000000, 0.000000000000000 ) );
#422 = DIRECTION( '', ( 0.000000000000000, 0.000000000000000, -1.00000000000000 ) );
#423 = DIRECTION( '', ( 1.00000000000000, 0.000000000000000, 0.000000000000000 ) );
#424 = CARTESIAN_POINT( '', ( 0.000000000000000, 0.000000000000000, 0.000000000000000 ) );
#425 = DIRECTION( '', ( 0.000000000000000, 0.000000000000000, -1.00000000000000 ) );
#426 = DIRECTION( '', ( 1.00000000000000, 0.000000000000000, 0.000000000000000 ) );
#427 = CARTESIAN_POINT( '', ( 2.33103467084383E-015, 139.700000000000, 0.000000000000000 ) );
#428 = DIRECTION( '', ( 0.000000000000000, 0.000000000000000, 1.00000000000000 ) );
#429 = DIRECTION( '', ( -1.00000000000000, 0.000000000000000, 0.000000000000000 ) );
#430 = DIRECTION( '', ( 0.000000000000000, 1.00000000000000, 0.000000000000000 ) );
#431 = CARTESIAN_POINT( '', ( 2.33103467084383E-015, 12.7000000000000, 0.000000000000000 ) );
#432 = DIRECTION( '', ( 0.000000000000000, 0.000000000000000, 1.00000000000000 ) );
#433 = DIRECTION( '', ( -1.00000000000000, 0.000000000000000, 0.000000000000000 ) );
#434 = CARTESIAN_POINT( '', ( -6.01732205729455E-015, 0.000000000000000, 0.000000000000000 ) );
#435 = DIRECTION( '', ( 0.000000000000000, 0.000000000000000, 1.00000000000000 ) );
#436 = DIRECTION( '', ( 1.00000000000000, 0.000000000000000, 0.000000000000000 ) );
#437 = DIRECTION( '', ( 0.000000000000000, -1.00000000000000, 0.000000000000000 ) );
#438 = CARTESIAN_POINT( '', ( 0.000000000000000, 114.300000000000, 0.000000000000000 ) );
#439 = DIRECTION( '', ( 0.000000000000000, 0.000000000000000, -1.00000000000000 ) );
#440 = DIRECTION( '', ( 1.00000000000000, 0.000000000000000, 0.000000000000000 ) );
#441 = CARTESIAN_POINT( '', ( 0.000000000000000, 38.1000000000000, 2.38125000000000 ) );
#442 = DIRECTION( '', ( 0.000000000000000, 0.000000000000000, 1.00000000000000 ) );
#443 = DIRECTION( '', ( 1.00000000000000, 0.000000000000000, 0.000000000000000 ) );
#444 = CARTESIAN_POINT( '', ( 0.000000000000000, 76.2000000000000, 2.38125000000000 ) );
#445 = DIRECTION( '', ( 0.000000000000000, 0.000000000000000, -1.00000000000000 ) );
#446 = DIRECTION( '', ( 1.00000000000000, 0.000000000000000, 0.000000000000000 ) );
#447 = CARTESIAN_POINT( '', ( 0.000000000000000, 0.000000000000000, 2.38125000000000 ) );
#448 = DIRECTION( '', ( 0.000000000000000, 0.000000000000000, -1.00000000000000 ) );
#449 = DIRECTION( '', ( 1.00000000000000, 0.000000000000000, 0.000000000000000 ) );
#450 = DIRECTION( '', ( 0.000000000000000, -1.00000000000000, 0.000000000000000 ) );
#451 = CARTESIAN_POINT( '', ( -6.01732205729455E-015, 0.000000000000000, 2.38125000000000 ) );
#452 = DIRECTION( '', ( 0.000000000000000, 0.000000000000000, 1.00000000000000 ) );
#453 = DIRECTION( '', ( 1.00000000000000, 0.000000000000000, 0.000000000000000 ) );
#454 = CARTESIAN_POINT( '', ( 2.33103467084383E-015, 12.7000000000000, 2.38125000000000 ) );
#455 = DIRECTION( '', ( 0.000000000000000, 0.000000000000000, 1.00000000000000 ) );
#456 = DIRECTION( '', ( -1.00000000000000, 0.000000000000000, 0.000000000000000 ) );
#457 = DIRECTION( '', ( 0.000000000000000, 1.00000000000000, 0.000000000000000 ) );
#458 = CARTESIAN_POINT( '', ( 2.33103467084383E-015, 139.700000000000, 2.38125000000000 ) );
#459 = DIRECTION( '', ( 0.000000000000000, 0.000000000000000, 1.00000000000000 ) );
#460 = DIRECTION( '', ( -1.00000000000000, 0.000000000000000, 0.000000000000000 ) );
#461 = CARTESIAN_POINT( '', ( 0.000000000000000, 114.300000000000, 2.38125000000000 ) );
#462 = DIRECTION( '', ( 0.000000000000000, 0.000000000000000, -1.00000000000000 ) );
#463 = DIRECTION( '', ( 1.00000000000000, 0.000000000000000, 0.000000000000000 ) );
#464 = DIRECTION( '', ( 0.000000000000000, 0.000000000000000, -1.00000000000000 ) );
#465 = DIRECTION( '', ( 0.000000000000000, 0.000000000000000, -1.00000000000000 ) );
#466 = DIRECTION( '', ( 0.000000000000000, 0.000000000000000, -1.00000000000000 ) );
#467 = DIRECTION( '', ( 0.000000000000000, 0.000000000000000, -1.00000000000000 ) );
ENDSEC;
END-ISO-10303-21;
