  0
SECTION
  2
HEADER
  9
$ACADVER
  1
AC2.10
  0
ENDSEC
  0
SECTION
  2
TABLES
  0
TABLE
  2
LAYER
 70
     8
  0
LAYER
  2
0
 62
     7
 70
0
  6
CONTINUOUS
  0
LAYER
  2
1
 62
     1
 70
0
  6
CONTINUOUS
  0
LAYER
  2
2
 62
     2
 70
0
  6
CONTINUOUS
  0
LAYER
  2
3
 62
     3
 70
0
  6
CONTINUOUS
  0
LAYER
  2
4
 62
     4
 70
0
  6
CONTINUOUS
  0
LAYER
  2
5
 62
     5
 70
0
  6
CONTINUOUS
  0
LAYER
  2
6
 62
     6
 70
0
  6
CONTINUOUS
  0
LAYER
  2
7
 62
     7
 70
0
  6
CONTINUOUS
  0
ENDTAB
  0
TABLE
  2
STYLE
 70
     1
  0
STYLE
 70
     0
  2
STANDARD
  3
TXT
 40
0.00
 41
1.00
 42
1.00
 50
0.00
 71
     0
  0
ENDTAB
  0
ENDSEC
  0
SECTION
  2
BLOCKS
  0
BLOCK
  8
0
  2
EPAD
 70
0
 10
0.0
 20
0.0
  0
POLYLINE
  8
0
 66
1
 70
1
 40
0.5
 41
0.5
  0
VERTEX
  8
0
 10
-0.25
 20
0.0
 42
1.0
  0
VERTEX
  8
0
 10
0.25
 20
0.0
 42
1.0
  0
SEQEND
  8
0
  0
ENDBLK
  8
0
  0
BLOCK
  8
0
  2
RPAD
 70
0
 10
0.0
 20
0.0
  0
TRACE
  8
0
 10
-0.5
 20
-0.5
 11
-0.5
 21
0.5
 12
0.5
 22
-0.5
 13
0.5
 23
0.5
  0
ENDBLK
  8
0
  0
ENDSEC
0
SECTION
2
ENTITIES
0
POLYLINE
8
0
66
1
40
0.040000
41
0.040000
0
VERTEX
8
0
10
2.600000
20
-0.687000
0
VERTEX
8
0
10
2.600000
20
-0.787000
0
VERTEX
8
0
10
2.600000
20
-0.887000
0
VERTEX
8
0
10
2.600000
20
-0.987000
0
SEQEND
8
0
0
POLYLINE
8
0
66
1
40
0.040000
41
0.040000
0
VERTEX
8
0
10
2.600000
20
-0.487000
0
VERTEX
8
0
10
2.500000
20
-0.487000
0
SEQEND
8
0
0
POLYLINE
8
0
66
1
40
0.040000
41
0.040000
0
VERTEX
8
0
10
2.600000
20
-0.587000
0
VERTEX
8
0
10
2.700000
20
-0.587000
0
VERTEX
8
0
10
2.700000
20
-1.087000
0
VERTEX
8
0
10
2.600000
20
-1.087000
0
SEQEND
8
0
0
POLYLINE
8
0
66
1
40
0.040000
41
0.040000
0
VERTEX
8
0
10
2.600000
20
-0.787000
0
VERTEX
8
0
10
2.375000
20
-0.787000
0
SEQEND
8
0
0
POLYLINE
8
0
66
1
40
0.040000
41
0.040000
0
VERTEX
8
0
10
2.375000
20
-0.887000
0
VERTEX
8
0
10
2.475000
20
-0.887000
0
VERTEX
8
0
10
2.475000
20
-1.087000
0
VERTEX
8
0
10
2.600000
20
-1.087000
0
SEQEND
8
0
0
POLYLINE
8
0
66
1
40
0.040000
41
0.040000
0
VERTEX
8
0
10
2.600000
20
0.512000
0
VERTEX
8
0
10
2.700000
20
0.512000
0
VERTEX
8
0
10
2.700000
20
0.012000
0
VERTEX
8
0
10
2.600000
20
0.012000
0
SEQEND
8
0
0
POLYLINE
8
0
66
1
40
0.040000
41
0.040000
0
VERTEX
8
0
10
2.640000
20
-0.087000
0
VERTEX
8
0
10
2.600000
20
-0.087000
0
SEQEND
8
0
0
POLYLINE
8
0
66
1
40
0.040000
41
0.040000
0
VERTEX
8
0
10
2.600000
20
0.412000
0
VERTEX
8
0
10
2.600000
20
0.352000
0
VERTEX
8
0
10
2.600000
20
0.312000
0
VERTEX
8
0
10
2.600000
20
0.272000
0
VERTEX
8
0
10
2.600000
20
0.212000
0
VERTEX
8
0
10
2.600000
20
0.112000
0
SEQEND
8
0
0
POLYLINE
8
0
66
1
40
0.040000
41
0.040000
0
VERTEX
8
0
10
2.600000
20
0.612000
0
VERTEX
8
0
10
2.500000
20
0.612000
0
SEQEND
8
0
0
POLYLINE
8
0
66
1
40
0.040000
41
0.040000
0
VERTEX
8
0
10
2.600000
20
0.012000
0
VERTEX
8
0
10
2.475000
20
0.012000
0
VERTEX
8
0
10
2.475000
20
0.212000
0
VERTEX
8
0
10
2.375000
20
0.212000
0
SEQEND
8
0
0
POLYLINE
8
0
66
1
40
0.040000
41
0.040000
0
VERTEX
8
0
10
2.600000
20
0.312000
0
VERTEX
8
0
10
2.375000
20
0.312000
0
SEQEND
8
0
0
POLYLINE
8
0
66
1
40
0.040000
41
0.040000
0
VERTEX
8
0
10
2.600000
20
1.587000
0
VERTEX
8
0
10
2.700000
20
1.587000
0
VERTEX
8
0
10
2.700000
20
1.087000
0
VERTEX
8
0
10
2.600000
20
1.087000
0
SEQEND
8
0
0
POLYLINE
8
0
66
1
40
0.040000
41
0.040000
0
VERTEX
8
0
10
2.600000
20
1.687000
0
VERTEX
8
0
10
2.500000
20
1.687000
0
SEQEND
8
0
0
POLYLINE
8
0
66
1
40
0.040000
41
0.040000
0
VERTEX
8
0
10
2.600000
20
1.387000
0
VERTEX
8
0
10
2.415000
20
1.387000
0
VERTEX
8
0
10
2.375000
20
1.387000
0
SEQEND
8
0
0
POLYLINE
8
0
66
1
40
0.040000
41
0.040000
0
VERTEX
8
0
10
2.375000
20
1.287000
0
VERTEX
8
0
10
2.475000
20
1.287000
0
VERTEX
8
0
10
2.475000
20
1.087000
0
VERTEX
8
0
10
2.600000
20
1.087000
0
SEQEND
8
0
0
POLYLINE
8
0
66
1
40
0.040000
41
0.040000
0
VERTEX
8
0
10
2.600000
20
1.487000
0
VERTEX
8
0
10
2.600000
20
1.387000
0
VERTEX
8
0
10
2.600000
20
1.287000
0
VERTEX
8
0
10
2.600000
20
1.187000
0
SEQEND
8
0
0
POLYLINE
8
0
66
1
40
0.040000
41
0.040000
0
VERTEX
8
0
10
2.600000
20
-0.487000
0
VERTEX
8
0
10
2.775000
20
-0.487000
0
VERTEX
8
0
10
2.775000
20
-1.187000
0
VERTEX
8
0
10
2.600000
20
-1.187000
0
SEQEND
8
0
0
POLYLINE
8
0
66
1
40
0.040000
41
0.040000
0
VERTEX
8
0
10
2.775000
20
-0.087000
0
VERTEX
8
0
10
2.850000
20
-0.087000
0
VERTEX
8
0
10
2.850000
20
-1.737000
0
SEQEND
8
0
0
POLYLINE
8
0
66
1
40
0.040000
41
0.040000
0
VERTEX
8
0
10
2.600000
20
0.612000
0
VERTEX
8
0
10
2.775000
20
0.612000
0
VERTEX
8
0
10
2.775000
20
-0.087000
0
VERTEX
8
0
10
2.640000
20
-0.087000
0
SEQEND
8
0
0
POLYLINE
8
0
66
1
40
0.040000
41
0.040000
0
VERTEX
8
0
10
2.750000
20
0.987000
0
VERTEX
8
0
10
2.775000
20
0.987000
0
SEQEND
8
0
0
POLYLINE
8
0
66
1
40
0.040000
41
0.040000
0
VERTEX
8
0
10
2.600000
20
1.687000
0
VERTEX
8
0
10
2.775000
20
1.687000
0
VERTEX
8
0
10
2.775000
20
0.987000
0
SEQEND
8
0
0
POLYLINE
8
0
66
1
40
0.040000
41
0.040000
0
VERTEX
8
0
10
2.750000
20
0.987000
0
VERTEX
8
0
10
2.600000
20
0.987000
0
SEQEND
8
0
0
POLYLINE
8
0
66
1
40
0.040000
41
0.040000
0
VERTEX
8
0
10
2.775000
20
-1.187000
0
VERTEX
8
0
10
2.775000
20
-1.712000
0
VERTEX
8
0
10
-0.675000
20
-1.712000
0
VERTEX
8
0
10
-2.700000
20
-1.712000
0
VERTEX
8
0
10
-2.725000
20
-1.712000
0
SEQEND
8
0
0
POLYLINE
8
0
66
1
40
0.040000
41
0.040000
0
VERTEX
8
0
10
-0.650000
20
-1.787000
0
VERTEX
8
0
10
-0.675000
20
-1.787000
0
VERTEX
8
0
10
-2.600000
20
-1.787000
0
VERTEX
8
0
10
-2.625000
20
-1.787000
0
SEQEND
8
0
0
POLYLINE
8
0
66
1
40
0.040000
41
0.040000
0
VERTEX
8
0
10
2.850000
20
-1.737000
0
VERTEX
8
0
10
2.850000
20
-1.787000
0
VERTEX
8
0
10
-0.650000
20
-1.787000
0
SEQEND
8
0
0
POLYLINE
8
0
66
1
40
0.040000
41
0.040000
0
VERTEX
8
0
10
-0.650000
20
-1.862000
0
VERTEX
8
0
10
-0.675000
20
-1.862000
0
VERTEX
8
0
10
-2.500000
20
-1.862000
0
SEQEND
8
0
0
POLYLINE
8
0
66
1
40
0.040000
41
0.040000
0
VERTEX
8
0
10
2.775000
20
0.987000
0
VERTEX
8
0
10
2.925000
20
0.987000
0
VERTEX
8
0
10
2.925000
20
-1.862000
0
VERTEX
8
0
10
-0.650000
20
-1.862000
0
SEQEND
8
0
0
POLYLINE
8
0
66
1
40
0.100000
41
0.100000
0
VERTEX
8
0
10
1.850000
20
-1.487000
0
VERTEX
8
0
10
1.950000
20
-1.487000
0
VERTEX
8
0
10
2.050000
20
-1.487000
0
SEQEND
8
0
0
POLYLINE
8
0
66
1
40
0.100000
41
0.100000
0
VERTEX
8
0
10
1.075000
20
-1.487000
0
VERTEX
8
0
10
0.975000
20
-1.487000
0
VERTEX
8
0
10
0.875000
20
-1.487000
0
SEQEND
8
0
0
POLYLINE
8
0
66
1
40
0.040000
41
0.040000
0
VERTEX
8
0
10
-0.400000
20
-1.437000
0
VERTEX
8
0
10
-0.550000
20
-1.437000
0
SEQEND
8
0
0
POLYLINE
8
0
66
1
40
0.040000
41
0.040000
0
VERTEX
8
0
10
2.100000
20
0.612000
0
VERTEX
8
0
10
2.100000
20
1.687000
0
SEQEND
8
0
0
POLYLINE
8
0
66
1
40
0.040000
41
0.040000
0
VERTEX
8
0
10
2.375000
20
-0.987000
0
VERTEX
8
0
10
2.375000
20
-1.062000
0
VERTEX
8
0
10
2.325000
20
-1.112000
0
VERTEX
8
0
10
2.300000
20
-1.137000
0
SEQEND
8
0
0
POLYLINE
8
0
66
1
40
0.040000
41
0.040000
0
VERTEX
8
0
10
2.375000
20
1.187000
0
VERTEX
8
0
10
2.275000
20
1.187000
0
VERTEX
8
0
10
2.275000
20
2.012000
0
VERTEX
8
0
10
-1.250000
20
2.012000
0
VERTEX
8
0
10
-1.250000
20
1.737000
0
SEQEND
8
0
0
POLYLINE
8
0
66
1
40
0.040000
41
0.040000
0
VERTEX
8
0
10
2.375000
20
0.112000
0
VERTEX
8
0
10
2.200000
20
0.112000
0
VERTEX
8
0
10
2.200000
20
1.937000
0
VERTEX
8
0
10
-1.150000
20
1.937000
0
VERTEX
8
0
10
-1.150000
20
1.737000
0
SEQEND
8
0
0
POLYLINE
8
0
66
1
40
0.040000
41
0.040000
0
VERTEX
8
0
10
2.000000
20
-1.137000
0
VERTEX
8
0
10
2.000000
20
1.862000
0
VERTEX
8
0
10
-1.050000
20
1.862000
0
VERTEX
8
0
10
-1.050000
20
1.777000
0
VERTEX
8
0
10
-1.050000
20
1.737000
0
SEQEND
8
0
0
POLYLINE
8
0
66
1
40
0.040000
41
0.040000
0
VERTEX
8
0
10
-2.400000
20
-0.562000
0
VERTEX
8
0
10
-2.850000
20
-0.562000
0
SEQEND
8
0
0
POLYLINE
8
0
66
1
40
0.040000
41
0.040000
0
VERTEX
8
0
10
-0.910000
20
-1.012000
0
VERTEX
8
0
10
-0.950000
20
-1.012000
0
SEQEND
8
0
0
POLYLINE
8
0
66
1
40
0.040000
41
0.040000
0
VERTEX
8
0
10
-0.650000
20
-1.437000
0
VERTEX
8
0
10
-0.650000
20
-1.397000
0
VERTEX
8
0
10
-0.650000
20
-1.287000
0
VERTEX
8
0
10
-2.850000
20
-1.287000
0
VERTEX
8
0
10
-2.850000
20
-0.802000
0
VERTEX
8
0
10
-2.850000
20
-0.762000
0
SEQEND
8
0
0
POLYLINE
8
0
66
1
40
0.040000
41
0.040000
0
VERTEX
8
0
10
-0.950000
20
1.637000
0
VERTEX
8
0
10
-0.950000
20
1.677000
0
VERTEX
8
0
10
-0.950000
20
1.737000
0
SEQEND
8
0
0
POLYLINE
8
0
66
1
40
0.040000
41
0.040000
0
VERTEX
8
0
10
-2.650000
20
1.737000
0
VERTEX
8
0
10
-2.650000
20
1.637000
0
SEQEND
8
0
0
POLYLINE
8
0
66
1
40
0.040000
41
0.040000
0
VERTEX
8
0
10
2.500000
20
-1.512000
0
VERTEX
8
0
10
2.450000
20
-1.237000
0
SEQEND
8
0
0
POLYLINE
8
0
66
1
40
0.040000
41
0.040000
0
VERTEX
8
0
10
2.400000
20
-1.512000
0
VERTEX
8
0
10
2.200000
20
-1.512000
0
SEQEND
8
0
0
POLYLINE
8
0
66
1
40
0.040000
41
0.040000
0
VERTEX
8
0
10
-2.700000
20
-0.062000
0
VERTEX
8
0
10
-2.850000
20
-0.062000
0
SEQEND
8
0
0
POLYLINE
8
0
66
1
40
0.040000
41
0.040000
0
VERTEX
8
0
10
-2.600000
20
0.037000
0
VERTEX
8
0
10
-2.850000
20
0.037000
0
SEQEND
8
0
0
POLYLINE
8
0
66
1
40
0.040000
41
0.040000
0
VERTEX
8
0
10
-2.500000
20
0.137000
0
VERTEX
8
0
10
-2.850000
20
0.137000
0
SEQEND
8
0
0
POLYLINE
8
0
66
1
40
0.040000
41
0.040000
0
VERTEX
8
0
10
-2.850000
20
-0.462000
0
VERTEX
8
0
10
-2.850000
20
-0.362000
0
SEQEND
8
0
0
POLYLINE
8
0
66
1
40
0.040000
41
0.040000
0
VERTEX
8
0
10
-0.800000
20
-1.612000
0
VERTEX
8
0
10
-2.400000
20
-1.612000
0
SEQEND
8
0
0
POLYLINE
8
0
66
1
40
0.040000
41
0.040000
0
VERTEX
8
0
10
-0.800000
20
1.637000
0
VERTEX
8
0
10
-0.950000
20
1.637000
0
SEQEND
8
0
0
POLYLINE
8
0
66
1
40
0.040000
41
0.040000
0
VERTEX
8
0
10
-2.850000
20
-0.462000
0
VERTEX
8
0
10
-2.400000
20
-0.462000
0
SEQEND
8
0
0
POLYLINE
8
0
66
1
40
0.040000
41
0.040000
0
VERTEX
8
0
10
2.400000
20
0.512000
0
VERTEX
8
0
10
2.400000
20
0.787000
0
SEQEND
8
0
0
POLYLINE
8
0
66
1
40
0.040000
41
0.040000
0
VERTEX
8
0
10
2.500000
20
0.787000
0
VERTEX
8
0
10
2.500000
20
0.612000
0
SEQEND
8
0
0
POLYLINE
8
0
66
1
40
0.040000
41
0.040000
0
VERTEX
8
0
10
2.500000
20
1.862000
0
VERTEX
8
0
10
2.500000
20
1.687000
0
SEQEND
8
0
0
POLYLINE
8
0
66
1
40
0.040000
41
0.040000
0
VERTEX
8
0
10
2.400000
20
1.862000
0
VERTEX
8
0
10
2.400000
20
1.587000
0
SEQEND
8
0
0
POLYLINE
8
0
66
1
40
0.040000
41
0.040000
0
VERTEX
8
0
10
2.400000
20
-0.312000
0
VERTEX
8
0
10
2.400000
20
-0.587000
0
SEQEND
8
0
0
POLYLINE
8
0
66
1
40
0.040000
41
0.040000
0
VERTEX
8
0
10
2.500000
20
-0.312000
0
VERTEX
8
0
10
2.500000
20
-0.487000
0
SEQEND
8
0
0
POLYLINE
8
0
66
1
40
0.040000
41
0.040000
0
VERTEX
8
0
10
2.400000
20
-0.587000
0
VERTEX
8
0
10
2.400000
20
-0.747000
0
VERTEX
8
0
10
2.375000
20
-0.787000
0
SEQEND
8
0
0
POLYLINE
8
0
66
1
40
0.040000
41
0.040000
0
VERTEX
8
0
10
2.400000
20
0.512000
0
VERTEX
8
0
10
2.400000
20
0.352000
0
VERTEX
8
0
10
2.375000
20
0.312000
0
SEQEND
8
0
0
POLYLINE
8
0
66
1
40
0.040000
41
0.040000
0
VERTEX
8
0
10
2.400000
20
1.587000
0
VERTEX
8
0
10
2.400000
20
1.427000
0
VERTEX
8
0
10
2.375000
20
1.387000
0
SEQEND
8
0
0
POLYLINE
8
0
66
1
40
0.040000
41
0.040000
0
VERTEX
8
0
10
1.900000
20
-0.587000
0
VERTEX
8
0
10
1.900000
20
0.512000
0
SEQEND
8
0
0
POLYLINE
8
0
66
1
40
0.040000
41
0.040000
0
VERTEX
8
0
10
-0.700000
20
-0.387000
0
VERTEX
8
0
10
-0.775000
20
-0.387000
0
VERTEX
8
0
10
-0.800000
20
-0.412000
0
VERTEX
8
0
10
-0.950000
20
-0.412000
0
SEQEND
8
0
0
POLYLINE
8
0
66
1
40
0.040000
41
0.040000
0
VERTEX
8
0
10
-0.700000
20
-0.487000
0
VERTEX
8
0
10
-0.775000
20
-0.487000
0
VERTEX
8
0
10
-0.800000
20
-0.512000
0
VERTEX
8
0
10
-0.950000
20
-0.512000
0
SEQEND
8
0
0
POLYLINE
8
0
66
1
40
0.040000
41
0.040000
0
VERTEX
8
0
10
-0.700000
20
-0.587000
0
VERTEX
8
0
10
-0.775000
20
-0.587000
0
VERTEX
8
0
10
-0.800000
20
-0.612000
0
VERTEX
8
0
10
-0.950000
20
-0.612000
0
SEQEND
8
0
0
POLYLINE
8
0
66
1
40
0.040000
41
0.040000
0
VERTEX
8
0
10
-0.700000
20
-0.687000
0
VERTEX
8
0
10
-0.775000
20
-0.687000
0
VERTEX
8
0
10
-0.800000
20
-0.712000
0
VERTEX
8
0
10
-0.950000
20
-0.712000
0
SEQEND
8
0
0
POLYLINE
8
0
66
1
40
0.040000
41
0.040000
0
VERTEX
8
0
10
-0.700000
20
-0.787000
0
VERTEX
8
0
10
-0.775000
20
-0.787000
0
VERTEX
8
0
10
-0.800000
20
-0.812000
0
VERTEX
8
0
10
-0.950000
20
-0.812000
0
SEQEND
8
0
0
POLYLINE
8
0
66
1
40
0.040000
41
0.040000
0
VERTEX
8
0
10
-0.700000
20
-0.887000
0
VERTEX
8
0
10
-0.775000
20
-0.887000
0
VERTEX
8
0
10
-0.800000
20
-0.912000
0
VERTEX
8
0
10
-0.950000
20
-0.912000
0
SEQEND
8
0
0
POLYLINE
8
0
66
1
40
0.040000
41
0.040000
0
VERTEX
8
0
10
-0.600000
20
-0.387000
0
VERTEX
8
0
10
-0.600000
20
-0.487000
0
VERTEX
8
0
10
-0.600000
20
-0.587000
0
VERTEX
8
0
10
-0.600000
20
-0.687000
0
VERTEX
8
0
10
-0.600000
20
-0.787000
0
VERTEX
8
0
10
-0.600000
20
-0.887000
0
SEQEND
8
0
0
POLYLINE
8
0
66
1
40
0.040000
41
0.040000
0
VERTEX
8
0
10
-0.500000
20
-0.387000
0
VERTEX
8
0
10
-0.500000
20
-0.487000
0
VERTEX
8
0
10
-0.500000
20
-0.547000
0
VERTEX
8
0
10
-0.500000
20
-0.587000
0
VERTEX
8
0
10
-0.500000
20
-0.627000
0
VERTEX
8
0
10
-0.500000
20
-0.687000
0
VERTEX
8
0
10
-0.500000
20
-0.787000
0
VERTEX
8
0
10
-0.500000
20
-0.887000
0
SEQEND
8
0
0
POLYLINE
8
0
66
1
40
0.040000
41
0.040000
0
VERTEX
8
0
10
-0.600000
20
-0.887000
0
VERTEX
8
0
10
-0.600000
20
-1.012000
0
SEQEND
8
0
0
POLYLINE
8
0
66
1
40
0.040000
41
0.040000
0
VERTEX
8
0
10
-0.550000
20
-1.437000
0
VERTEX
8
0
10
-0.550000
20
-1.012000
0
VERTEX
8
0
10
-0.600000
20
-1.012000
0
VERTEX
8
0
10
-0.910000
20
-1.012000
0
SEQEND
8
0
0
POLYLINE
8
0
66
1
40
0.040000
41
0.040000
0
VERTEX
8
0
10
-0.625000
20
1.037000
0
VERTEX
8
0
10
-0.910000
20
1.037000
0
VERTEX
8
0
10
-0.950000
20
1.037000
0
SEQEND
8
0
0
POLYLINE
8
0
66
1
40
0.040000
41
0.040000
0
VERTEX
8
0
10
-0.525000
20
1.037000
0
VERTEX
8
0
10
-0.425000
20
1.037000
0
SEQEND
8
0
0
POLYLINE
8
0
66
1
40
0.040000
41
0.040000
0
VERTEX
8
0
10
-0.325000
20
1.037000
0
VERTEX
8
0
10
-0.425000
20
1.037000
0
SEQEND
8
0
0
POLYLINE
8
0
66
1
40
0.040000
41
0.040000
0
VERTEX
8
0
10
-0.225000
20
1.037000
0
VERTEX
8
0
10
-0.125000
20
1.037000
0
SEQEND
8
0
0
POLYLINE
8
0
66
1
40
0.040000
41
0.040000
0
VERTEX
8
0
10
0.425000
20
1.037000
0
VERTEX
8
0
10
0.525000
20
1.037000
0
SEQEND
8
0
0
POLYLINE
8
0
66
1
40
0.040000
41
0.040000
0
VERTEX
8
0
10
0.625000
20
1.037000
0
VERTEX
8
0
10
0.585000
20
1.037000
0
VERTEX
8
0
10
0.525000
20
1.037000
0
SEQEND
8
0
0
POLYLINE
8
0
66
1
40
0.040000
41
0.040000
0
VERTEX
8
0
10
0.725000
20
1.037000
0
VERTEX
8
0
10
0.825000
20
1.037000
0
SEQEND
8
0
0
POLYLINE
8
0
66
1
40
0.040000
41
0.040000
0
VERTEX
8
0
10
0.075000
20
1.637000
0
VERTEX
8
0
10
0.075000
20
1.762000
0
VERTEX
8
0
10
0.425000
20
1.762000
0
VERTEX
8
0
10
0.425000
20
1.637000
0
SEQEND
8
0
0
POLYLINE
8
0
66
1
40
0.040000
41
0.040000
0
VERTEX
8
0
10
-0.025000
20
1.762000
0
VERTEX
8
0
10
-0.025000
20
1.637000
0
SEQEND
8
0
0
POLYLINE
8
0
66
1
40
0.040000
41
0.040000
0
VERTEX
8
0
10
0.925000
20
1.637000
0
VERTEX
8
0
10
0.925000
20
1.762000
0
SEQEND
8
0
0
POLYLINE
8
0
66
1
40
0.040000
41
0.040000
0
VERTEX
8
0
10
1.025000
20
1.637000
0
VERTEX
8
0
10
1.025000
20
1.677000
0
VERTEX
8
0
10
1.025000
20
1.787000
0
VERTEX
8
0
10
1.900000
20
1.787000
0
VERTEX
8
0
10
1.900000
20
1.587000
0
SEQEND
8
0
0
POLYLINE
8
0
66
1
40
0.040000
41
0.040000
0
VERTEX
8
0
10
-0.025000
20
1.762000
0
VERTEX
8
0
10
-0.800000
20
1.762000
0
VERTEX
8
0
10
-0.800000
20
1.637000
0
SEQEND
8
0
0
POLYLINE
8
0
66
1
40
0.040000
41
0.040000
0
VERTEX
8
0
10
-0.625000
20
1.487000
0
VERTEX
8
0
10
-0.625000
20
1.637000
0
SEQEND
8
0
0
POLYLINE
8
0
66
1
40
0.040000
41
0.040000
0
VERTEX
8
0
10
-0.525000
20
1.487000
0
VERTEX
8
0
10
-0.525000
20
1.637000
0
SEQEND
8
0
0
POLYLINE
8
0
66
1
40
0.040000
41
0.040000
0
VERTEX
8
0
10
0.325000
20
1.487000
0
VERTEX
8
0
10
0.325000
20
1.527000
0
VERTEX
8
0
10
0.325000
20
1.637000
0
SEQEND
8
0
0
POLYLINE
8
0
66
1
40
0.040000
41
0.040000
0
VERTEX
8
0
10
0.425000
20
1.487000
0
VERTEX
8
0
10
0.425000
20
1.637000
0
SEQEND
8
0
0
POLYLINE
8
0
66
1
40
0.040000
41
0.040000
0
VERTEX
8
0
10
-0.525000
20
1.487000
0
VERTEX
8
0
10
0.075000
20
1.487000
0
VERTEX
8
0
10
0.075000
20
1.637000
0
SEQEND
8
0
0
POLYLINE
8
0
66
1
40
0.040000
41
0.040000
0
VERTEX
8
0
10
0.425000
20
1.487000
0
VERTEX
8
0
10
1.025000
20
1.487000
0
VERTEX
8
0
10
1.025000
20
1.637000
0
SEQEND
8
0
0
POLYLINE
8
0
66
1
40
0.040000
41
0.040000
0
VERTEX
8
0
10
-0.325000
20
1.037000
0
VERTEX
8
0
10
-0.325000
20
1.137000
0
SEQEND
8
0
0
POLYLINE
8
0
66
1
40
0.040000
41
0.040000
0
VERTEX
8
0
10
0.425000
20
1.037000
0
VERTEX
8
0
10
0.425000
20
1.137000
0
SEQEND
8
0
0
POLYLINE
8
0
66
1
40
0.040000
41
0.040000
0
VERTEX
8
0
10
-0.325000
20
0.637000
0
VERTEX
8
0
10
-0.950000
20
0.637000
0
SEQEND
8
0
0
POLYLINE
8
0
66
1
40
0.040000
41
0.040000
0
VERTEX
8
0
10
-0.225000
20
0.637000
0
VERTEX
8
0
10
-0.225000
20
0.562000
0
VERTEX
8
0
10
-0.250000
20
0.537000
0
VERTEX
8
0
10
-0.750000
20
0.537000
0
VERTEX
8
0
10
-0.850000
20
0.437000
0
VERTEX
8
0
10
-0.910000
20
0.437000
0
VERTEX
8
0
10
-0.950000
20
0.437000
0
SEQEND
8
0
0
POLYLINE
8
0
66
1
40
0.040000
41
0.040000
0
VERTEX
8
0
10
-0.125000
20
0.637000
0
VERTEX
8
0
10
-0.025000
20
0.637000
0
SEQEND
8
0
0
POLYLINE
8
0
66
1
40
0.040000
41
0.040000
0
VERTEX
8
0
10
0.075000
20
0.637000
0
VERTEX
8
0
10
0.175000
20
0.637000
0
VERTEX
8
0
10
0.275000
20
0.637000
0
SEQEND
8
0
0
POLYLINE
8
0
66
1
40
0.040000
41
0.040000
0
VERTEX
8
0
10
0.375000
20
0.637000
0
VERTEX
8
0
10
0.375000
20
0.587000
0
VERTEX
8
0
10
0.325000
20
0.537000
0
VERTEX
8
0
10
-0.150000
20
0.537000
0
VERTEX
8
0
10
-0.225000
20
0.462000
0
VERTEX
8
0
10
-0.725000
20
0.462000
0
VERTEX
8
0
10
-0.850000
20
0.337000
0
VERTEX
8
0
10
-0.950000
20
0.337000
0
SEQEND
8
0
0
POLYLINE
8
0
66
1
40
0.040000
41
0.040000
0
VERTEX
8
0
10
0.725000
20
0.487000
0
VERTEX
8
0
10
0.725000
20
0.637000
0
SEQEND
8
0
0
POLYLINE
8
0
66
1
40
0.040000
41
0.040000
0
VERTEX
8
0
10
0.825000
20
0.487000
0
VERTEX
8
0
10
0.825000
20
0.637000
0
SEQEND
8
0
0
POLYLINE
8
0
66
1
40
0.040000
41
0.040000
0
VERTEX
8
0
10
0.375000
20
0.187000
0
VERTEX
8
0
10
0.375000
20
0.037000
0
SEQEND
8
0
0
POLYLINE
8
0
66
1
40
0.040000
41
0.040000
0
VERTEX
8
0
10
0.275000
20
0.187000
0
VERTEX
8
0
10
0.275000
20
0.037000
0
SEQEND
8
0
0
POLYLINE
8
0
66
1
40
0.040000
41
0.040000
0
VERTEX
8
0
10
0.725000
20
0.037000
0
VERTEX
8
0
10
0.725000
20
0.112000
0
VERTEX
8
0
10
0.525000
20
0.312000
0
VERTEX
8
0
10
-0.075000
20
0.312000
0
VERTEX
8
0
10
-0.150000
20
0.237000
0
VERTEX
8
0
10
-0.650000
20
0.237000
0
VERTEX
8
0
10
-0.850000
20
0.037000
0
VERTEX
8
0
10
-0.910000
20
0.037000
0
VERTEX
8
0
10
-0.950000
20
0.037000
0
SEQEND
8
0
0
POLYLINE
8
0
66
1
40
0.040000
41
0.040000
0
VERTEX
8
0
10
0.825000
20
0.037000
0
VERTEX
8
0
10
0.925000
20
0.037000
0
VERTEX
8
0
10
1.025000
20
0.037000
0
SEQEND
8
0
0
POLYLINE
8
0
66
1
40
0.040000
41
0.040000
0
VERTEX
8
0
10
1.125000
20
0.037000
0
VERTEX
8
0
10
1.225000
20
0.037000
0
SEQEND
8
0
0
POLYLINE
8
0
66
1
40
0.040000
41
0.040000
0
VERTEX
8
0
10
0.375000
20
0.187000
0
VERTEX
8
0
10
0.500000
20
0.187000
0
SEQEND
8
0
0
POLYLINE
8
0
66
1
40
0.040000
41
0.040000
0
VERTEX
8
0
10
0.500000
20
0.562000
0
VERTEX
8
0
10
0.600000
20
0.562000
0
VERTEX
8
0
10
0.675000
20
0.487000
0
VERTEX
8
0
10
0.725000
20
0.487000
0
SEQEND
8
0
0
POLYLINE
8
0
66
1
40
0.040000
41
0.040000
0
VERTEX
8
0
10
0.275000
20
0.187000
0
VERTEX
8
0
10
0.275000
20
0.237000
0
VERTEX
8
0
10
-0.050000
20
0.237000
0
VERTEX
8
0
10
-0.125000
20
0.162000
0
VERTEX
8
0
10
-0.325000
20
0.162000
0
VERTEX
8
0
10
-0.325000
20
0.077000
0
VERTEX
8
0
10
-0.325000
20
0.037000
0
SEQEND
8
0
0
POLYLINE
8
0
66
1
40
0.040000
41
0.040000
0
VERTEX
8
0
10
0.325000
20
1.037000
0
VERTEX
8
0
10
0.200000
20
1.037000
0
VERTEX
8
0
10
0.200000
20
0.987000
0
VERTEX
8
0
10
0.150000
20
0.937000
0
VERTEX
8
0
10
-0.950000
20
0.937000
0
SEQEND
8
0
0
POLYLINE
8
0
66
1
40
0.040000
41
0.040000
0
VERTEX
8
0
10
0.925000
20
1.037000
0
VERTEX
8
0
10
0.925000
20
0.987000
0
VERTEX
8
0
10
0.875000
20
0.937000
0
VERTEX
8
0
10
0.250000
20
0.937000
0
VERTEX
8
0
10
0.175000
20
0.862000
0
VERTEX
8
0
10
-0.750000
20
0.862000
0
VERTEX
8
0
10
-0.775000
20
0.837000
0
VERTEX
8
0
10
-0.950000
20
0.837000
0
SEQEND
8
0
0
POLYLINE
8
0
66
1
40
0.040000
41
0.040000
0
VERTEX
8
0
10
1.025000
20
1.037000
0
VERTEX
8
0
10
1.025000
20
0.987000
0
VERTEX
8
0
10
0.900000
20
0.862000
0
VERTEX
8
0
10
0.275000
20
0.862000
0
VERTEX
8
0
10
0.200000
20
0.787000
0
VERTEX
8
0
10
-0.725000
20
0.787000
0
VERTEX
8
0
10
-0.775000
20
0.737000
0
VERTEX
8
0
10
-0.950000
20
0.737000
0
SEQEND
8
0
0
POLYLINE
8
0
66
1
40
0.040000
41
0.040000
0
VERTEX
8
0
10
1.325000
20
0.037000
0
VERTEX
8
0
10
1.325000
20
0.087000
0
VERTEX
8
0
10
1.175000
20
0.237000
0
VERTEX
8
0
10
0.700000
20
0.237000
0
VERTEX
8
0
10
0.550000
20
0.387000
0
VERTEX
8
0
10
-0.100000
20
0.387000
0
VERTEX
8
0
10
-0.175000
20
0.312000
0
VERTEX
8
0
10
-0.675000
20
0.312000
0
VERTEX
8
0
10
-0.850000
20
0.137000
0
VERTEX
8
0
10
-0.950000
20
0.137000
0
SEQEND
8
0
0
POLYLINE
8
0
66
1
40
0.040000
41
0.040000
0
VERTEX
8
0
10
1.425000
20
0.037000
0
VERTEX
8
0
10
1.425000
20
0.087000
0
VERTEX
8
0
10
1.200000
20
0.312000
0
VERTEX
8
0
10
0.725000
20
0.312000
0
VERTEX
8
0
10
0.575000
20
0.462000
0
VERTEX
8
0
10
-0.125000
20
0.462000
0
VERTEX
8
0
10
-0.200000
20
0.387000
0
VERTEX
8
0
10
-0.700000
20
0.387000
0
VERTEX
8
0
10
-0.850000
20
0.237000
0
VERTEX
8
0
10
-0.950000
20
0.237000
0
SEQEND
8
0
0
POLYLINE
8
0
66
1
40
0.070000
41
0.070000
0
VERTEX
8
0
10
0.325000
20
1.412000
0
VERTEX
8
0
10
0.325000
20
1.487000
0
SEQEND
8
0
0
POLYLINE
8
0
66
1
40
0.040000
41
0.040000
0
VERTEX
8
0
10
0.600000
20
0.662000
0
VERTEX
8
0
10
0.600000
20
0.702000
0
VERTEX
8
0
10
0.600000
20
0.787000
0
SEQEND
8
0
0
POLYLINE
8
0
66
1
40
0.040000
41
0.040000
0
VERTEX
8
0
10
0.275000
20
0.637000
0
VERTEX
8
0
10
0.275000
20
0.762000
0
VERTEX
8
0
10
0.300000
20
0.787000
0
VERTEX
8
0
10
0.600000
20
0.787000
0
VERTEX
8
0
10
0.925000
20
0.787000
0
VERTEX
8
0
10
1.075000
20
0.937000
0
VERTEX
8
0
10
1.125000
20
0.937000
0
VERTEX
8
0
10
1.125000
20
1.137000
0
VERTEX
8
0
10
0.625000
20
1.137000
0
VERTEX
8
0
10
0.625000
20
1.037000
0
SEQEND
8
0
0
POLYLINE
8
0
66
1
40
0.040000
41
0.040000
0
VERTEX
8
0
10
0.600000
20
0.037000
0
VERTEX
8
0
10
0.600000
20
-0.002000
0
VERTEX
8
0
10
0.600000
20
-0.062000
0
VERTEX
8
0
10
0.825000
20
-0.062000
0
VERTEX
8
0
10
0.825000
20
0.037000
0
SEQEND
8
0
0
POLYLINE
8
0
66
1
40
0.040000
41
0.040000
0
VERTEX
8
0
10
0.275000
20
-0.362000
0
VERTEX
8
0
10
0.275000
20
-0.212000
0
SEQEND
8
0
0
POLYLINE
8
0
66
1
40
0.040000
41
0.040000
0
VERTEX
8
0
10
0.375000
20
-0.362000
0
VERTEX
8
0
10
0.375000
20
-0.212000
0
SEQEND
8
0
0
POLYLINE
8
0
66
1
40
0.040000
41
0.040000
0
VERTEX
8
0
10
0.375000
20
-0.362000
0
VERTEX
8
0
10
0.375000
20
-0.462000
0
VERTEX
8
0
10
0.250000
20
-0.462000
0
VERTEX
8
0
10
0.150000
20
-0.362000
0
VERTEX
8
0
10
0.150000
20
-0.162000
0
VERTEX
8
0
10
0.275000
20
-0.037000
0
VERTEX
8
0
10
0.275000
20
-0.002000
0
VERTEX
8
0
10
0.275000
20
0.037000
0
SEQEND
8
0
0
POLYLINE
8
0
66
1
40
0.040000
41
0.040000
0
VERTEX
8
0
10
0.275000
20
-0.212000
0
VERTEX
8
0
10
0.275000
20
-0.172000
0
VERTEX
8
0
10
0.275000
20
-0.162000
0
VERTEX
8
0
10
0.375000
20
-0.062000
0
VERTEX
8
0
10
0.375000
20
0.037000
0
SEQEND
8
0
0
POLYLINE
8
0
66
1
40
0.040000
41
0.040000
0
VERTEX
8
0
10
0.675000
20
-0.812000
0
VERTEX
8
0
10
0.775000
20
-0.812000
0
SEQEND
8
0
0
POLYLINE
8
0
66
1
40
0.040000
41
0.040000
0
VERTEX
8
0
10
0.375000
20
-0.812000
0
VERTEX
8
0
10
0.475000
20
-0.812000
0
VERTEX
8
0
10
0.575000
20
-0.812000
0
SEQEND
8
0
0
POLYLINE
8
0
66
1
40
0.040000
41
0.040000
0
VERTEX
8
0
10
-0.225000
20
0.037000
0
VERTEX
8
0
10
-0.225000
20
-0.037000
0
VERTEX
8
0
10
-0.175000
20
-0.087000
0
SEQEND
8
0
0
POLYLINE
8
0
66
1
40
0.040000
41
0.040000
0
VERTEX
8
0
10
-0.100000
20
-1.162000
0
VERTEX
8
0
10
0.275000
20
-1.162000
0
VERTEX
8
0
10
0.275000
20
-0.912000
0
VERTEX
8
0
10
0.375000
20
-0.912000
0
VERTEX
8
0
10
0.375000
20
-0.812000
0
SEQEND
8
0
0
POLYLINE
8
0
66
1
40
0.040000
41
0.040000
0
VERTEX
8
0
10
-0.175000
20
-0.087000
0
VERTEX
8
0
10
-0.125000
20
-0.137000
0
VERTEX
8
0
10
0.025000
20
-0.137000
0
SEQEND
8
0
0
POLYLINE
8
0
66
1
40
0.040000
41
0.040000
0
VERTEX
8
0
10
0.025000
20
-0.887000
0
VERTEX
8
0
10
-0.075000
20
-0.987000
0
VERTEX
8
0
10
-0.350000
20
-0.987000
0
SEQEND
8
0
0
POLYLINE
8
0
66
1
40
0.040000
41
0.040000
0
VERTEX
8
0
10
-0.500000
20
-0.887000
0
VERTEX
8
0
10
-0.500000
20
-0.937000
0
VERTEX
8
0
10
-0.450000
20
-0.987000
0
VERTEX
8
0
10
-0.350000
20
-0.987000
0
SEQEND
8
0
0
POLYLINE
8
0
66
1
40
0.040000
41
0.040000
0
VERTEX
8
0
10
0.375000
20
-0.362000
0
VERTEX
8
0
10
0.975000
20
-0.362000
0
VERTEX
8
0
10
0.975000
20
-0.212000
0
SEQEND
8
0
0
POLYLINE
8
0
66
1
40
0.040000
41
0.040000
0
VERTEX
8
0
10
0.975000
20
-0.812000
0
VERTEX
8
0
10
0.975000
20
-0.712000
0
VERTEX
8
0
10
0.825000
20
-0.562000
0
VERTEX
8
0
10
0.225000
20
-0.562000
0
VERTEX
8
0
10
-0.125000
20
-0.212000
0
VERTEX
8
0
10
-0.200000
20
-0.212000
0
VERTEX
8
0
10
-0.350000
20
-0.062000
0
VERTEX
8
0
10
-0.950000
20
-0.062000
0
SEQEND
8
0
0
POLYLINE
8
0
66
1
40
0.040000
41
0.040000
0
VERTEX
8
0
10
0.875000
20
-0.812000
0
VERTEX
8
0
10
0.875000
20
-0.737000
0
VERTEX
8
0
10
0.775000
20
-0.637000
0
VERTEX
8
0
10
0.175000
20
-0.637000
0
VERTEX
8
0
10
-0.175000
20
-0.287000
0
VERTEX
8
0
10
-0.250000
20
-0.287000
0
VERTEX
8
0
10
-0.375000
20
-0.162000
0
VERTEX
8
0
10
-0.910000
20
-0.162000
0
VERTEX
8
0
10
-0.950000
20
-0.162000
0
SEQEND
8
0
0
POLYLINE
8
0
66
1
40
0.040000
41
0.040000
0
VERTEX
8
0
10
0.275000
20
-0.812000
0
VERTEX
8
0
10
0.275000
20
-0.772000
0
VERTEX
8
0
10
0.275000
20
-0.712000
0
VERTEX
8
0
10
0.125000
20
-0.712000
0
VERTEX
8
0
10
-0.225000
20
-0.362000
0
VERTEX
8
0
10
-0.300000
20
-0.362000
0
VERTEX
8
0
10
-0.400000
20
-0.262000
0
VERTEX
8
0
10
-0.950000
20
-0.262000
0
SEQEND
8
0
0
POLYLINE
8
0
66
1
40
0.040000
41
0.040000
0
VERTEX
8
0
10
0.575000
20
-0.812000
0
VERTEX
8
0
10
0.575000
20
-0.912000
0
VERTEX
8
0
10
1.200000
20
-0.912000
0
VERTEX
8
0
10
1.200000
20
-0.087000
0
VERTEX
8
0
10
1.025000
20
-0.087000
0
VERTEX
8
0
10
1.025000
20
0.037000
0
SEQEND
8
0
0
POLYLINE
8
0
66
1
40
0.040000
41
0.040000
0
VERTEX
8
0
10
0.925000
20
-0.087000
0
VERTEX
8
0
10
0.875000
20
-0.137000
0
VERTEX
8
0
10
0.875000
20
-0.212000
0
VERTEX
8
0
10
0.875000
20
-0.237000
0
SEQEND
8
0
0
POLYLINE
8
0
66
1
40
0.040000
41
0.040000
0
VERTEX
8
0
10
2.250000
20
-0.312000
0
VERTEX
8
0
10
2.400000
20
-0.312000
0
SEQEND
8
0
0
POLYLINE
8
0
66
1
40
0.040000
41
0.040000
0
VERTEX
8
0
10
1.100000
20
-0.312000
0
VERTEX
8
0
10
1.100000
20
-0.212000
0
VERTEX
8
0
10
0.975000
20
-0.212000
0
SEQEND
8
0
0
POLYLINE
8
0
66
1
40
0.040000
41
0.040000
0
VERTEX
8
0
10
2.200000
20
-1.487000
0
VERTEX
8
0
10
2.200000
20
-1.512000
0
SEQEND
8
0
0
POLYLINE
8
0
66
1
40
0.040000
41
0.040000
0
VERTEX
8
0
10
2.200000
20
-1.487000
0
VERTEX
8
0
10
2.200000
20
-0.787000
0
VERTEX
8
0
10
2.375000
20
-0.787000
0
SEQEND
8
0
0
POLYLINE
8
0
66
1
40
0.080000
41
0.080000
0
VERTEX
8
0
10
1.075000
20
-1.487000
0
VERTEX
8
0
10
1.075000
20
-1.527000
0
SEQEND
8
0
0
POLYLINE
8
0
66
1
40
0.070000
41
0.070000
0
VERTEX
8
0
10
0.975000
20
-1.487000
0
VERTEX
8
0
10
0.975000
20
-1.612000
0
SEQEND
8
0
0
POLYLINE
8
0
66
1
40
0.070000
41
0.070000
0
VERTEX
8
0
10
0.875000
20
-1.487000
0
VERTEX
8
0
10
0.875000
20
-1.612000
0
SEQEND
8
0
0
POLYLINE
8
0
66
1
40
0.040000
41
0.040000
0
VERTEX
8
0
10
-0.350000
20
-0.987000
0
VERTEX
8
0
10
-0.275000
20
-1.062000
0
VERTEX
8
0
10
-0.275000
20
-1.237000
0
VERTEX
8
0
10
0.400000
20
-1.237000
0
SEQEND
8
0
0
POLYLINE
8
0
66
1
40
0.040000
41
0.040000
0
VERTEX
8
0
10
-0.400000
20
-1.637000
0
VERTEX
8
0
10
-0.800000
20
-1.637000
0
VERTEX
8
0
10
-0.800000
20
-1.612000
0
VERTEX
8
0
10
-0.800000
20
-1.587000
0
SEQEND
8
0
0
POLYLINE
8
0
66
1
40
0.040000
41
0.040000
0
VERTEX
8
0
10
-0.800000
20
-1.512000
0
VERTEX
8
0
10
-0.800000
20
-1.587000
0
SEQEND
8
0
0
POLYLINE
8
0
66
1
40
0.040000
41
0.040000
0
VERTEX
8
0
10
-0.400000
20
-1.637000
0
VERTEX
8
0
10
-0.400000
20
-1.537000
0
SEQEND
8
0
0
POLYLINE
8
0
66
1
40
0.040000
41
0.040000
0
VERTEX
8
0
10
-0.100000
20
-1.562000
0
VERTEX
8
0
10
-0.100000
20
-1.637000
0
SEQEND
8
0
0
POLYLINE
8
0
66
1
40
0.040000
41
0.040000
0
VERTEX
8
0
10
0.000000
20
-1.637000
0
VERTEX
8
0
10
-0.100000
20
-1.637000
0
VERTEX
8
0
10
-0.400000
20
-1.637000
0
SEQEND
8
0
0
POLYLINE
8
0
66
1
40
0.070000
41
0.070000
0
VERTEX
8
0
10
0.025000
20
-1.462000
0
VERTEX
8
0
10
0.000000
20
-1.437000
0
VERTEX
8
0
10
-0.400000
20
-1.437000
0
SEQEND
8
0
0
POLYLINE
8
0
66
1
40
0.080000
41
0.080000
0
VERTEX
8
0
10
1.850000
20
-1.487000
0
VERTEX
8
0
10
1.650000
20
-1.487000
0
SEQEND
8
0
0
POLYLINE
8
0
66
1
40
0.040000
41
0.040000
0
VERTEX
8
0
10
2.050000
20
-1.237000
0
VERTEX
8
0
10
2.100000
20
-1.187000
0
VERTEX
8
0
10
2.100000
20
-0.522000
0
VERTEX
8
0
10
2.100000
20
-0.487000
0
SEQEND
8
0
0
POLYLINE
8
0
66
1
40
0.070000
41
0.070000
0
VERTEX
8
0
10
1.650000
20
-0.587000
0
VERTEX
8
0
10
1.525000
20
-0.712000
0
VERTEX
8
0
10
1.525000
20
-1.337000
0
VERTEX
8
0
10
-0.400000
20
-1.337000
0
SEQEND
8
0
0
POLYLINE
8
0
66
1
40
0.040000
41
0.040000
0
VERTEX
8
0
10
1.325000
20
0.637000
0
VERTEX
8
0
10
1.325000
20
0.537000
0
SEQEND
8
0
0
POLYLINE
8
0
66
1
40
0.040000
41
0.040000
0
VERTEX
8
0
10
0.825000
20
0.487000
0
VERTEX
8
0
10
1.225000
20
0.487000
0
VERTEX
8
0
10
1.300000
20
0.412000
0
VERTEX
8
0
10
1.350000
20
0.412000
0
VERTEX
8
0
10
1.425000
20
0.487000
0
VERTEX
8
0
10
1.425000
20
0.637000
0
SEQEND
8
0
0
POLYLINE
8
0
66
1
40
0.080000
41
0.080000
0
VERTEX
8
0
10
1.075000
20
-1.527000
0
VERTEX
8
0
10
1.075000
20
-1.612000
0
SEQEND
8
0
0
POLYLINE
8
0
66
1
40
0.040000
41
0.040000
0
VERTEX
8
0
10
0.825000
20
-1.612000
0
VERTEX
8
0
10
0.875000
20
-1.612000
0
SEQEND
8
0
0
POLYLINE
8
0
66
1
40
0.070000
41
0.070000
0
VERTEX
8
0
10
0.875000
20
-1.612000
0
VERTEX
8
0
10
0.975000
20
-1.612000
0
VERTEX
8
0
10
1.000000
20
-1.612000
0
VERTEX
8
0
10
1.075000
20
-1.612000
0
SEQEND
8
0
0
POLYLINE
8
0
66
1
40
0.070000
41
0.070000
0
VERTEX
8
0
10
0.825000
20
-1.612000
0
VERTEX
8
0
10
0.175000
20
-1.612000
0
VERTEX
8
0
10
0.025000
20
-1.462000
0
SEQEND
8
0
0
POLYLINE
8
0
66
1
40
0.040000
41
0.040000
0
VERTEX
8
0
10
2.200000
20
-1.512000
0
VERTEX
8
0
10
2.200000
20
-1.637000
0
VERTEX
8
0
10
1.625000
20
-1.637000
0
VERTEX
8
0
10
1.600000
20
-1.612000
0
VERTEX
8
0
10
1.425000
20
-1.612000
0
VERTEX
8
0
10
1.375000
20
-1.612000
0
SEQEND
8
0
0
POLYLINE
8
0
66
1
40
0.070000
41
0.070000
0
VERTEX
8
0
10
1.075000
20
-1.612000
0
VERTEX
8
0
10
1.375000
20
-1.612000
0
SEQEND
8
0
0
POLYLINE
8
0
66
1
40
0.040000
41
0.040000
0
VERTEX
8
0
10
1.775000
20
0.537000
0
VERTEX
8
0
10
1.775000
20
0.497000
0
VERTEX
8
0
10
1.775000
20
-1.237000
0
VERTEX
8
0
10
2.050000
20
-1.237000
0
SEQEND
8
0
0
POLYLINE
8
0
66
1
40
0.040000
41
0.040000
0
VERTEX
8
0
10
2.250000
20
-0.187000
0
VERTEX
8
0
10
2.100000
20
-0.187000
0
SEQEND
8
0
0
POLYLINE
8
0
66
1
40
0.040000
41
0.040000
0
VERTEX
8
0
10
2.100000
20
-0.487000
0
VERTEX
8
0
10
2.100000
20
-0.187000
0
VERTEX
8
0
10
2.100000
20
0.612000
0
SEQEND
8
0
0
POLYLINE
8
0
66
1
40
0.040000
41
0.040000
0
VERTEX
8
0
10
1.400000
20
-0.187000
0
VERTEX
8
0
10
1.300000
20
-0.187000
0
SEQEND
8
0
0
POLYLINE
8
0
66
1
40
0.040000
41
0.040000
0
VERTEX
8
0
10
0.400000
20
-1.237000
0
VERTEX
8
0
10
1.300000
20
-1.237000
0
VERTEX
8
0
10
1.300000
20
-0.187000
0
VERTEX
8
0
10
1.300000
20
-0.087000
0
SEQEND
8
0
0
POLYLINE
8
0
66
1
40
0.040000
41
0.040000
0
VERTEX
8
0
10
1.900000
20
1.587000
0
VERTEX
8
0
10
1.900000
20
0.762000
0
VERTEX
8
0
10
1.900000
20
0.512000
0
SEQEND
8
0
0
POLYLINE
8
0
66
1
40
0.040000
41
0.040000
0
VERTEX
8
0
10
1.425000
20
0.637000
0
VERTEX
8
0
10
1.425000
20
0.762000
0
SEQEND
8
0
0
POLYLINE
8
0
66
1
40
0.040000
41
0.040000
0
VERTEX
8
0
10
0.725000
20
0.487000
0
VERTEX
8
0
10
0.725000
20
0.412000
0
VERTEX
8
0
10
0.750000
20
0.387000
0
VERTEX
8
0
10
1.225000
20
0.387000
0
VERTEX
8
0
10
1.350000
20
0.262000
0
VERTEX
8
0
10
1.525000
20
0.262000
0
VERTEX
8
0
10
1.650000
20
0.262000
0
SEQEND
8
0
0
POLYLINE
8
0
66
1
40
0.080000
41
0.080000
0
VERTEX
8
0
10
1.650000
20
-0.587000
0
VERTEX
8
0
10
1.650000
20
0.262000
0
VERTEX
8
0
10
1.650000
20
1.362000
0
SEQEND
8
0
0
POLYLINE
8
0
66
1
40
0.040000
41
0.040000
0
VERTEX
8
0
10
-0.025000
20
1.037000
0
VERTEX
8
0
10
-0.025000
20
1.087000
0
VERTEX
8
0
10
-0.150000
20
1.212000
0
VERTEX
8
0
10
-0.750000
20
1.212000
0
VERTEX
8
0
10
-0.825000
20
1.137000
0
VERTEX
8
0
10
-0.950000
20
1.137000
0
SEQEND
8
0
0
POLYLINE
8
0
66
1
40
0.040000
41
0.040000
0
VERTEX
8
0
10
0.075000
20
1.037000
0
VERTEX
8
0
10
0.075000
20
1.112000
0
VERTEX
8
0
10
-0.100000
20
1.287000
0
VERTEX
8
0
10
-0.775000
20
1.287000
0
VERTEX
8
0
10
-0.825000
20
1.237000
0
VERTEX
8
0
10
-0.950000
20
1.237000
0
SEQEND
8
0
0
POLYLINE
8
0
66
1
40
0.070000
41
0.070000
0
VERTEX
8
0
10
-0.625000
20
1.487000
0
VERTEX
8
0
10
-0.625000
20
1.387000
0
VERTEX
8
0
10
0.325000
20
1.387000
0
VERTEX
8
0
10
0.325000
20
1.412000
0
SEQEND
8
0
0
POLYLINE
8
0
66
1
40
0.040000
41
0.040000
0
VERTEX
8
0
10
1.625000
20
1.587000
0
VERTEX
8
0
10
1.900000
20
1.587000
0
SEQEND
8
0
0
POLYLINE
8
0
66
1
40
0.040000
41
0.040000
0
VERTEX
8
0
10
1.525000
20
1.587000
0
VERTEX
8
0
10
1.525000
20
1.362000
0
SEQEND
8
0
0
POLYLINE
8
0
66
1
40
0.070000
41
0.070000
0
VERTEX
8
0
10
0.325000
20
1.387000
0
VERTEX
8
0
10
0.325000
20
1.362000
0
VERTEX
8
0
10
1.525000
20
1.362000
0
VERTEX
8
0
10
1.650000
20
1.362000
0
SEQEND
8
0
0
POLYLINE
8
0
66
1
40
0.040000
41
0.040000
0
VERTEX
8
0
10
2.100000
20
1.862000
0
VERTEX
8
0
10
2.100000
20
1.687000
0
SEQEND
8
0
0
POLYLINE
8
0
66
1
40
0.040000
41
0.040000
0
VERTEX
8
0
10
-2.650000
20
1.737000
0
VERTEX
8
0
10
-2.725000
20
1.812000
0
VERTEX
8
0
10
-2.750000
20
1.837000
0
VERTEX
8
0
10
-2.750000
20
1.887000
0
VERTEX
8
0
10
-2.700000
20
1.937000
0
VERTEX
8
0
10
-2.700000
20
1.987000
0
SEQEND
8
0
0
POLYLINE
8
0
66
1
40
0.040000
41
0.040000
0
VERTEX
8
0
10
-2.550000
20
1.737000
0
VERTEX
8
0
10
-2.550000
20
1.812000
0
VERTEX
8
0
10
-2.500000
20
1.862000
0
VERTEX
8
0
10
-2.500000
20
1.987000
0
SEQEND
8
0
0
POLYLINE
8
0
66
1
40
0.040000
41
0.040000
0
VERTEX
8
0
10
-2.450000
20
1.737000
0
VERTEX
8
0
10
-2.450000
20
1.812000
0
VERTEX
8
0
10
-2.400000
20
1.862000
0
VERTEX
8
0
10
-2.400000
20
1.987000
0
SEQEND
8
0
0
POLYLINE
8
0
66
1
40
0.040000
41
0.040000
0
VERTEX
8
0
10
-2.350000
20
1.737000
0
VERTEX
8
0
10
-2.350000
20
1.812000
0
VERTEX
8
0
10
-2.300000
20
1.862000
0
VERTEX
8
0
10
-2.300000
20
1.987000
0
SEQEND
8
0
0
POLYLINE
8
0
66
1
40
0.040000
41
0.040000
0
VERTEX
8
0
10
-2.250000
20
1.737000
0
VERTEX
8
0
10
-2.250000
20
1.812000
0
VERTEX
8
0
10
-2.200000
20
1.862000
0
VERTEX
8
0
10
-2.200000
20
1.987000
0
SEQEND
8
0
0
POLYLINE
8
0
66
1
40
0.040000
41
0.040000
0
VERTEX
8
0
10
-2.150000
20
1.737000
0
VERTEX
8
0
10
-2.150000
20
1.812000
0
VERTEX
8
0
10
-2.100000
20
1.862000
0
VERTEX
8
0
10
-2.100000
20
1.987000
0
SEQEND
8
0
0
POLYLINE
8
0
66
1
40
0.040000
41
0.040000
0
VERTEX
8
0
10
-2.050000
20
1.737000
0
VERTEX
8
0
10
-2.050000
20
1.812000
0
VERTEX
8
0
10
-2.000000
20
1.862000
0
VERTEX
8
0
10
-2.000000
20
1.947000
0
VERTEX
8
0
10
-2.000000
20
1.987000
0
SEQEND
8
0
0
POLYLINE
8
0
66
1
40
0.040000
41
0.040000
0
VERTEX
8
0
10
-1.950000
20
1.737000
0
VERTEX
8
0
10
-1.950000
20
1.812000
0
VERTEX
8
0
10
-1.900000
20
1.862000
0
VERTEX
8
0
10
-1.900000
20
1.947000
0
VERTEX
8
0
10
-1.900000
20
1.987000
0
SEQEND
8
0
0
POLYLINE
8
0
66
1
40
0.040000
41
0.040000
0
VERTEX
8
0
10
-1.850000
20
1.737000
0
VERTEX
8
0
10
-1.850000
20
1.812000
0
VERTEX
8
0
10
-1.800000
20
1.862000
0
VERTEX
8
0
10
-1.800000
20
1.947000
0
VERTEX
8
0
10
-1.800000
20
1.987000
0
SEQEND
8
0
0
POLYLINE
8
0
66
1
40
0.040000
41
0.040000
0
VERTEX
8
0
10
-1.750000
20
1.737000
0
VERTEX
8
0
10
-1.750000
20
1.777000
0
VERTEX
8
0
10
-1.750000
20
1.812000
0
VERTEX
8
0
10
-1.700000
20
1.862000
0
VERTEX
8
0
10
-1.700000
20
1.987000
0
SEQEND
8
0
0
POLYLINE
8
0
66
1
40
0.040000
41
0.040000
0
VERTEX
8
0
10
-1.650000
20
1.737000
0
VERTEX
8
0
10
-1.650000
20
1.812000
0
VERTEX
8
0
10
-1.600000
20
1.862000
0
VERTEX
8
0
10
-1.600000
20
1.987000
0
SEQEND
8
0
0
POLYLINE
8
0
66
1
40
0.040000
41
0.040000
0
VERTEX
8
0
10
-1.550000
20
1.737000
0
VERTEX
8
0
10
-1.550000
20
1.812000
0
VERTEX
8
0
10
-1.500000
20
1.862000
0
VERTEX
8
0
10
-1.500000
20
1.987000
0
SEQEND
8
0
0
POLYLINE
8
0
66
1
40
0.040000
41
0.040000
0
VERTEX
8
0
10
-1.450000
20
1.737000
0
VERTEX
8
0
10
-1.450000
20
1.812000
0
VERTEX
8
0
10
-1.400000
20
1.862000
0
VERTEX
8
0
10
-1.400000
20
1.987000
0
SEQEND
8
0
0
POLYLINE
8
0
66
1
40
0.040000
41
0.040000
0
VERTEX
8
0
10
-2.650000
20
1.862000
0
VERTEX
8
0
10
-2.600000
20
1.912000
0
VERTEX
8
0
10
-2.600000
20
1.987000
0
SEQEND
8
0
0
POLYLINE
8
0
66
1
40
0.040000
41
0.040000
0
VERTEX
8
0
10
-2.750000
20
0.237000
0
VERTEX
8
0
10
-2.400000
20
0.237000
0
VERTEX
8
0
10
-2.400000
20
-0.462000
0
SEQEND
8
0
0
POLYLINE
8
0
66
1
40
0.040000
41
0.040000
0
VERTEX
8
0
10
-2.750000
20
1.337000
0
VERTEX
8
0
10
-2.750000
20
1.412000
0
SEQEND
8
0
0
POLYLINE
8
0
66
1
40
0.040000
41
0.040000
0
VERTEX
8
0
10
-2.650000
20
1.637000
0
VERTEX
8
0
10
-2.650000
20
1.562000
0
VERTEX
8
0
10
-2.750000
20
1.462000
0
VERTEX
8
0
10
-2.750000
20
1.412000
0
SEQEND
8
0
0
POLYLINE
8
0
66
1
40
0.040000
41
0.040000
0
VERTEX
8
0
10
-1.150000
20
1.637000
0
VERTEX
8
0
10
-1.150000
20
1.597000
0
VERTEX
8
0
10
-1.150000
20
1.562000
0
VERTEX
8
0
10
-1.150000
20
1.487000
0
VERTEX
8
0
10
-1.050000
20
1.387000
0
VERTEX
8
0
10
-1.050000
20
0.512000
0
VERTEX
8
0
10
-1.100000
20
0.462000
0
VERTEX
8
0
10
-1.100000
20
0.362000
0
SEQEND
8
0
0
POLYLINE
8
0
66
1
40
0.040000
41
0.040000
0
VERTEX
8
0
10
-1.200000
20
0.362000
0
VERTEX
8
0
10
-1.200000
20
0.462000
0
VERTEX
8
0
10
-1.125000
20
0.537000
0
VERTEX
8
0
10
-1.125000
20
1.362000
0
VERTEX
8
0
10
-1.250000
20
1.487000
0
VERTEX
8
0
10
-1.250000
20
1.637000
0
SEQEND
8
0
0
POLYLINE
8
0
66
1
40
0.040000
41
0.040000
0
VERTEX
8
0
10
-1.350000
20
1.637000
0
VERTEX
8
0
10
-1.350000
20
1.487000
0
VERTEX
8
0
10
-1.200000
20
1.337000
0
VERTEX
8
0
10
-1.200000
20
0.562000
0
VERTEX
8
0
10
-1.300000
20
0.462000
0
VERTEX
8
0
10
-1.300000
20
0.362000
0
SEQEND
8
0
0
POLYLINE
8
0
66
1
40
0.040000
41
0.040000
0
VERTEX
8
0
10
-1.400000
20
0.362000
0
VERTEX
8
0
10
-1.400000
20
0.462000
0
VERTEX
8
0
10
-1.275000
20
0.587000
0
VERTEX
8
0
10
-1.275000
20
1.312000
0
VERTEX
8
0
10
-1.450000
20
1.487000
0
VERTEX
8
0
10
-1.450000
20
1.637000
0
SEQEND
8
0
0
POLYLINE
8
0
66
1
40
0.040000
41
0.040000
0
VERTEX
8
0
10
-1.550000
20
1.637000
0
VERTEX
8
0
10
-1.550000
20
1.562000
0
VERTEX
8
0
10
-1.550000
20
1.487000
0
VERTEX
8
0
10
-1.500000
20
1.437000
0
VERTEX
8
0
10
-1.500000
20
1.312000
0
SEQEND
8
0
0
POLYLINE
8
0
66
1
40
0.040000
41
0.040000
0
VERTEX
8
0
10
-1.650000
20
1.637000
0
VERTEX
8
0
10
-1.650000
20
1.487000
0
VERTEX
8
0
10
-1.600000
20
1.437000
0
VERTEX
8
0
10
-1.600000
20
1.312000
0
SEQEND
8
0
0
POLYLINE
8
0
66
1
40
0.040000
41
0.040000
0
VERTEX
8
0
10
-1.750000
20
1.637000
0
VERTEX
8
0
10
-1.750000
20
1.487000
0
VERTEX
8
0
10
-1.700000
20
1.437000
0
VERTEX
8
0
10
-1.700000
20
1.312000
0
SEQEND
8
0
0
POLYLINE
8
0
66
1
40
0.040000
41
0.040000
0
VERTEX
8
0
10
-1.850000
20
1.637000
0
VERTEX
8
0
10
-1.850000
20
1.487000
0
VERTEX
8
0
10
-1.800000
20
1.437000
0
VERTEX
8
0
10
-1.800000
20
1.312000
0
SEQEND
8
0
0
POLYLINE
8
0
66
1
40
0.040000
41
0.040000
0
VERTEX
8
0
10
-1.950000
20
1.637000
0
VERTEX
8
0
10
-1.950000
20
1.487000
0
VERTEX
8
0
10
-1.900000
20
1.437000
0
VERTEX
8
0
10
-1.900000
20
1.312000
0
SEQEND
8
0
0
POLYLINE
8
0
66
1
40
0.040000
41
0.040000
0
VERTEX
8
0
10
-2.050000
20
1.637000
0
VERTEX
8
0
10
-2.050000
20
1.597000
0
VERTEX
8
0
10
-2.050000
20
1.487000
0
VERTEX
8
0
10
-2.000000
20
1.437000
0
VERTEX
8
0
10
-2.000000
20
1.312000
0
SEQEND
8
0
0
POLYLINE
8
0
66
1
40
0.040000
41
0.040000
0
VERTEX
8
0
10
-2.150000
20
1.637000
0
VERTEX
8
0
10
-2.150000
20
1.487000
0
VERTEX
8
0
10
-2.100000
20
1.437000
0
VERTEX
8
0
10
-2.100000
20
1.352000
0
VERTEX
8
0
10
-2.100000
20
1.312000
0
SEQEND
8
0
0
POLYLINE
8
0
66
1
40
0.040000
41
0.040000
0
VERTEX
8
0
10
-2.250000
20
1.637000
0
VERTEX
8
0
10
-2.250000
20
1.487000
0
VERTEX
8
0
10
-2.200000
20
1.437000
0
VERTEX
8
0
10
-2.200000
20
1.312000
0
SEQEND
8
0
0
POLYLINE
8
0
66
1
40
0.040000
41
0.040000
0
VERTEX
8
0
10
-2.350000
20
1.637000
0
VERTEX
8
0
10
-2.350000
20
1.487000
0
VERTEX
8
0
10
-2.300000
20
1.437000
0
VERTEX
8
0
10
-2.300000
20
1.312000
0
SEQEND
8
0
0
POLYLINE
8
0
66
1
40
0.040000
41
0.040000
0
VERTEX
8
0
10
-2.450000
20
1.637000
0
VERTEX
8
0
10
-2.450000
20
1.487000
0
VERTEX
8
0
10
-2.400000
20
1.437000
0
VERTEX
8
0
10
-2.400000
20
1.312000
0
SEQEND
8
0
0
POLYLINE
8
0
66
1
40
0.040000
41
0.040000
0
VERTEX
8
0
10
-2.550000
20
1.637000
0
VERTEX
8
0
10
-2.550000
20
1.487000
0
VERTEX
8
0
10
-2.500000
20
1.437000
0
VERTEX
8
0
10
-2.500000
20
1.312000
0
SEQEND
8
0
0
POLYLINE
8
0
66
1
40
0.040000
41
0.040000
0
VERTEX
8
0
10
-2.700000
20
1.312000
0
VERTEX
8
0
10
-2.750000
20
1.312000
0
SEQEND
8
0
0
POLYLINE
8
0
66
1
40
0.040000
41
0.040000
0
VERTEX
8
0
10
-2.750000
20
1.337000
0
VERTEX
8
0
10
-2.750000
20
1.312000
0
SEQEND
8
0
0
POLYLINE
8
0
66
1
40
0.040000
41
0.040000
0
VERTEX
8
0
10
-1.600000
20
0.362000
0
VERTEX
8
0
10
-2.750000
20
0.362000
0
SEQEND
8
0
0
POLYLINE
8
0
66
1
40
0.040000
41
0.040000
0
VERTEX
8
0
10
-2.750000
20
1.312000
0
VERTEX
8
0
10
-2.750000
20
0.362000
0
VERTEX
8
0
10
-2.750000
20
0.237000
0
SEQEND
8
0
0
POLYLINE
8
0
66
1
40
0.040000
41
0.040000
0
VERTEX
8
0
10
-1.500000
20
0.362000
0
VERTEX
8
0
10
-1.500000
20
0.462000
0
VERTEX
8
0
10
-2.600000
20
0.462000
0
VERTEX
8
0
10
-2.600000
20
1.272000
0
VERTEX
8
0
10
-2.600000
20
1.312000
0
SEQEND
8
0
0
POLYLINE
8
0
66
1
40
0.040000
41
0.040000
0
VERTEX
8
0
10
-0.950000
20
-1.012000
0
VERTEX
8
0
10
-2.000000
20
-1.012000
0
VERTEX
8
0
10
-2.000000
20
-0.462000
0
VERTEX
8
0
10
-2.400000
20
-0.462000
0
SEQEND
8
0
0
POLYLINE
8
0
66
1
40
0.040000
41
0.040000
0
VERTEX
8
0
10
-2.400000
20
-0.562000
0
VERTEX
8
0
10
-2.125000
20
-0.562000
0
SEQEND
8
0
0
POLYLINE
8
0
66
1
40
0.040000
41
0.040000
0
VERTEX
8
0
10
-1.500000
20
-0.562000
0
VERTEX
8
0
10
-1.500000
20
0.362000
0
SEQEND
8
0
0
INSERT
8
0
2
RPAD
10
2.600000
20
-1.187000
41
0.080000
42
0.080000
50
90.000000
0
CIRCLE
8
0
10
2.600000
20
-1.187000
40
0.025000
0
INSERT
8
0
2
RPAD
10
2.600000
20
-1.087000
41
0.080000
42
0.080000
50
90.000000
0
CIRCLE
8
0
10
2.600000
20
-1.087000
40
0.025000
0
INSERT
8
0
2
RPAD
10
2.600000
20
-0.987000
41
0.080000
42
0.080000
50
90.000000
0
CIRCLE
8
0
10
2.600000
20
-0.987000
40
0.025000
0
INSERT
8
0
2
RPAD
10
2.600000
20
-0.887000
41
0.080000
42
0.080000
50
90.000000
0
CIRCLE
8
0
10
2.600000
20
-0.887000
40
0.025000
0
INSERT
8
0
2
RPAD
10
2.600000
20
-0.787000
41
0.080000
42
0.080000
50
90.000000
0
CIRCLE
8
0
10
2.600000
20
-0.787000
40
0.025000
0
INSERT
8
0
2
RPAD
10
2.600000
20
-0.687000
41
0.080000
42
0.080000
50
90.000000
0
CIRCLE
8
0
10
2.600000
20
-0.687000
40
0.025000
0
INSERT
8
0
2
RPAD
10
2.600000
20
-0.587000
41
0.080000
42
0.080000
50
90.000000
0
CIRCLE
8
0
10
2.600000
20
-0.587000
40
0.025000
0
INSERT
8
0
2
RPAD
10
2.600000
20
-0.487000
41
0.080000
42
0.080000
50
90.000000
0
CIRCLE
8
0
10
2.600000
20
-0.487000
40
0.025000
0
INSERT
8
0
2
EPAD
10
2.500000
20
-0.312000
41
0.080000
42
0.080000
0
CIRCLE
8
0
10
2.500000
20
-0.312000
40
0.025000
0
INSERT
8
0
2
EPAD
10
2.400000
20
-0.312000
41
0.080000
42
0.080000
0
CIRCLE
8
0
10
2.400000
20
-0.312000
40
0.025000
0
INSERT
8
0
2
EPAD
10
2.500000
20
-0.487000
41
0.070000
42
0.070000
0
CIRCLE
8
0
10
2.500000
20
-0.487000
40
0.025000
0
INSERT
8
0
2
EPAD
10
2.100000
20
-0.487000
41
0.070000
42
0.070000
0
CIRCLE
8
0
10
2.100000
20
-0.487000
40
0.025000
0
INSERT
8
0
2
RPAD
10
2.375000
20
-0.987000
41
0.080000
42
0.080000
50
90.000000
0
CIRCLE
8
0
10
2.375000
20
-0.987000
40
0.025000
0
INSERT
8
0
2
RPAD
10
2.375000
20
-0.887000
41
0.080000
42
0.080000
50
90.000000
0
CIRCLE
8
0
10
2.375000
20
-0.887000
40
0.025000
0
INSERT
8
0
2
RPAD
10
2.375000
20
-0.787000
41
0.080000
42
0.080000
50
90.000000
0
CIRCLE
8
0
10
2.375000
20
-0.787000
40
0.025000
0
INSERT
8
0
2
EPAD
10
-0.950000
20
1.487000
41
0.150000
42
0.150000
0
CIRCLE
8
0
10
-0.950000
20
1.487000
40
0.030000
0
INSERT
8
0
2
EPAD
10
-2.850000
20
1.737000
41
0.150000
42
0.150000
0
CIRCLE
8
0
10
-2.850000
20
1.737000
40
0.030000
0
INSERT
8
0
2
EPAD
10
-0.950000
20
-1.462000
41
0.150000
42
0.150000
0
CIRCLE
8
0
10
-0.950000
20
-1.462000
40
0.030000
0
INSERT
8
0
2
EPAD
10
-2.850000
20
-1.462000
41
0.150000
42
0.150000
0
CIRCLE
8
0
10
-2.850000
20
-1.462000
40
0.030000
0
INSERT
8
0
2
RPAD
10
-0.950000
20
1.637000
41
0.080000
42
0.080000
50
180.000000
0
CIRCLE
8
0
10
-0.950000
20
1.637000
40
0.025000
0
INSERT
8
0
2
RPAD
10
-1.050000
20
1.637000
41
0.080000
42
0.080000
50
180.000000
0
CIRCLE
8
0
10
-1.050000
20
1.637000
40
0.025000
0
INSERT
8
0
2
RPAD
10
-1.150000
20
1.637000
41
0.080000
42
0.080000
50
180.000000
0
CIRCLE
8
0
10
-1.150000
20
1.637000
40
0.025000
0
INSERT
8
0
2
RPAD
10
-1.250000
20
1.637000
41
0.080000
42
0.080000
50
180.000000
0
CIRCLE
8
0
10
-1.250000
20
1.637000
40
0.025000
0
INSERT
8
0
2
RPAD
10
-1.350000
20
1.637000
41
0.080000
42
0.080000
50
180.000000
0
CIRCLE
8
0
10
-1.350000
20
1.637000
40
0.025000
0
INSERT
8
0
2
RPAD
10
-1.450000
20
1.637000
41
0.080000
42
0.080000
50
180.000000
0
CIRCLE
8
0
10
-1.450000
20
1.637000
40
0.025000
0
INSERT
8
0
2
RPAD
10
-1.550000
20
1.637000
41
0.080000
42
0.080000
50
180.000000
0
CIRCLE
8
0
10
-1.550000
20
1.637000
40
0.025000
0
INSERT
8
0
2
RPAD
10
-1.650000
20
1.637000
41
0.080000
42
0.080000
50
180.000000
0
CIRCLE
8
0
10
-1.650000
20
1.637000
40
0.025000
0
INSERT
8
0
2
RPAD
10
-1.750000
20
1.637000
41
0.080000
42
0.080000
50
180.000000
0
CIRCLE
8
0
10
-1.750000
20
1.637000
40
0.025000
0
INSERT
8
0
2
RPAD
10
-1.850000
20
1.637000
41
0.080000
42
0.080000
50
180.000000
0
CIRCLE
8
0
10
-1.850000
20
1.637000
40
0.025000
0
INSERT
8
0
2
RPAD
10
-1.950000
20
1.637000
41
0.080000
42
0.080000
50
180.000000
0
CIRCLE
8
0
10
-1.950000
20
1.637000
40
0.025000
0
INSERT
8
0
2
RPAD
10
-2.050000
20
1.637000
41
0.080000
42
0.080000
50
180.000000
0
CIRCLE
8
0
10
-2.050000
20
1.637000
40
0.025000
0
INSERT
8
0
2
RPAD
10
-2.150000
20
1.637000
41
0.080000
42
0.080000
50
180.000000
0
CIRCLE
8
0
10
-2.150000
20
1.637000
40
0.025000
0
INSERT
8
0
2
RPAD
10
-2.150000
20
1.737000
41
0.080000
42
0.080000
50
180.000000
0
CIRCLE
8
0
10
-2.150000
20
1.737000
40
0.025000
0
INSERT
8
0
2
RPAD
10
-2.050000
20
1.737000
41
0.080000
42
0.080000
50
180.000000
0
CIRCLE
8
0
10
-2.050000
20
1.737000
40
0.025000
0
INSERT
8
0
2
RPAD
10
-1.950000
20
1.737000
41
0.080000
42
0.080000
50
180.000000
0
CIRCLE
8
0
10
-1.950000
20
1.737000
40
0.025000
0
INSERT
8
0
2
RPAD
10
-1.850000
20
1.737000
41
0.080000
42
0.080000
50
180.000000
0
CIRCLE
8
0
10
-1.850000
20
1.737000
40
0.025000
0
INSERT
8
0
2
RPAD
10
-1.750000
20
1.737000
41
0.080000
42
0.080000
50
180.000000
0
CIRCLE
8
0
10
-1.750000
20
1.737000
40
0.025000
0
INSERT
8
0
2
RPAD
10
-1.650000
20
1.737000
41
0.080000
42
0.080000
50
180.000000
0
CIRCLE
8
0
10
-1.650000
20
1.737000
40
0.025000
0
INSERT
8
0
2
RPAD
10
-1.550000
20
1.737000
41
0.080000
42
0.080000
50
180.000000
0
CIRCLE
8
0
10
-1.550000
20
1.737000
40
0.025000
0
INSERT
8
0
2
RPAD
10
-1.450000
20
1.737000
41
0.080000
42
0.080000
50
180.000000
0
CIRCLE
8
0
10
-1.450000
20
1.737000
40
0.025000
0
INSERT
8
0
2
RPAD
10
-1.350000
20
1.737000
41
0.080000
42
0.080000
50
180.000000
0
CIRCLE
8
0
10
-1.350000
20
1.737000
40
0.025000
0
INSERT
8
0
2
RPAD
10
-1.250000
20
1.737000
41
0.080000
42
0.080000
50
180.000000
0
CIRCLE
8
0
10
-1.250000
20
1.737000
40
0.025000
0
INSERT
8
0
2
RPAD
10
-1.150000
20
1.737000
41
0.080000
42
0.080000
50
180.000000
0
CIRCLE
8
0
10
-1.150000
20
1.737000
40
0.025000
0
INSERT
8
0
2
RPAD
10
-1.050000
20
1.737000
41
0.080000
42
0.080000
50
180.000000
0
CIRCLE
8
0
10
-1.050000
20
1.737000
40
0.025000
0
INSERT
8
0
2
RPAD
10
-0.950000
20
1.737000
41
0.080000
42
0.080000
50
180.000000
0
CIRCLE
8
0
10
-0.950000
20
1.737000
40
0.025000
0
INSERT
8
0
2
RPAD
10
-2.250000
20
1.737000
41
0.080000
42
0.080000
50
180.000000
0
CIRCLE
8
0
10
-2.250000
20
1.737000
40
0.025000
0
INSERT
8
0
2
RPAD
10
-2.350000
20
1.737000
41
0.080000
42
0.080000
50
180.000000
0
CIRCLE
8
0
10
-2.350000
20
1.737000
40
0.025000
0
INSERT
8
0
2
RPAD
10
-2.250000
20
1.637000
41
0.080000
42
0.080000
50
180.000000
0
CIRCLE
8
0
10
-2.250000
20
1.637000
40
0.025000
0
INSERT
8
0
2
RPAD
10
-2.350000
20
1.637000
41
0.080000
42
0.080000
50
180.000000
0
CIRCLE
8
0
10
-2.350000
20
1.637000
40
0.025000
0
INSERT
8
0
2
RPAD
10
-2.450000
20
1.737000
41
0.080000
42
0.080000
50
180.000000
0
CIRCLE
8
0
10
-2.450000
20
1.737000
40
0.025000
0
INSERT
8
0
2
RPAD
10
-2.450000
20
1.637000
41
0.080000
42
0.080000
50
180.000000
0
CIRCLE
8
0
10
-2.450000
20
1.637000
40
0.025000
0
INSERT
8
0
2
RPAD
10
-2.550000
20
1.637000
41
0.080000
42
0.080000
50
180.000000
0
CIRCLE
8
0
10
-2.550000
20
1.637000
40
0.025000
0
INSERT
8
0
2
RPAD
10
-2.550000
20
1.737000
41
0.080000
42
0.080000
50
180.000000
0
CIRCLE
8
0
10
-2.550000
20
1.737000
40
0.025000
0
INSERT
8
0
2
RPAD
10
-0.950000
20
1.337000
41
0.080000
42
0.080000
50
-90.000000
0
CIRCLE
8
0
10
-0.950000
20
1.337000
40
0.025000
0
INSERT
8
0
2
RPAD
10
-0.950000
20
1.237000
41
0.080000
42
0.080000
50
-90.000000
0
CIRCLE
8
0
10
-0.950000
20
1.237000
40
0.025000
0
INSERT
8
0
2
RPAD
10
-0.950000
20
1.137000
41
0.080000
42
0.080000
50
-90.000000
0
CIRCLE
8
0
10
-0.950000
20
1.137000
40
0.025000
0
INSERT
8
0
2
RPAD
10
-0.950000
20
1.037000
41
0.080000
42
0.080000
50
-90.000000
0
CIRCLE
8
0
10
-0.950000
20
1.037000
40
0.025000
0
INSERT
8
0
2
RPAD
10
-0.950000
20
0.937000
41
0.080000
42
0.080000
50
-90.000000
0
CIRCLE
8
0
10
-0.950000
20
0.937000
40
0.025000
0
INSERT
8
0
2
RPAD
10
-0.950000
20
0.837000
41
0.080000
42
0.080000
50
-90.000000
0
CIRCLE
8
0
10
-0.950000
20
0.837000
40
0.025000
0
INSERT
8
0
2
RPAD
10
-0.950000
20
0.737000
41
0.080000
42
0.080000
50
-90.000000
0
CIRCLE
8
0
10
-0.950000
20
0.737000
40
0.025000
0
INSERT
8
0
2
RPAD
10
-0.950000
20
0.637000
41
0.080000
42
0.080000
50
-90.000000
0
CIRCLE
8
0
10
-0.950000
20
0.637000
40
0.025000
0
INSERT
8
0
2
RPAD
10
-0.950000
20
0.437000
41
0.080000
42
0.080000
50
-90.000000
0
CIRCLE
8
0
10
-0.950000
20
0.437000
40
0.025000
0
INSERT
8
0
2
RPAD
10
-0.950000
20
0.337000
41
0.080000
42
0.080000
50
-90.000000
0
CIRCLE
8
0
10
-0.950000
20
0.337000
40
0.025000
0
INSERT
8
0
2
RPAD
10
-0.950000
20
0.237000
41
0.080000
42
0.080000
50
-90.000000
0
CIRCLE
8
0
10
-0.950000
20
0.237000
40
0.025000
0
INSERT
8
0
2
RPAD
10
-0.950000
20
0.137000
41
0.080000
42
0.080000
50
-90.000000
0
CIRCLE
8
0
10
-0.950000
20
0.137000
40
0.025000
0
INSERT
8
0
2
RPAD
10
-0.950000
20
0.037000
41
0.080000
42
0.080000
50
-90.000000
0
CIRCLE
8
0
10
-0.950000
20
0.037000
40
0.025000
0
INSERT
8
0
2
RPAD
10
-0.950000
20
-0.062000
41
0.080000
42
0.080000
50
-90.000000
0
CIRCLE
8
0
10
-0.950000
20
-0.062000
40
0.025000
0
INSERT
8
0
2
RPAD
10
-0.950000
20
-0.162000
41
0.080000
42
0.080000
50
-90.000000
0
CIRCLE
8
0
10
-0.950000
20
-0.162000
40
0.025000
0
INSERT
8
0
2
RPAD
10
-0.950000
20
-0.262000
41
0.080000
42
0.080000
50
-90.000000
0
CIRCLE
8
0
10
-0.950000
20
-0.262000
40
0.025000
0
INSERT
8
0
2
RPAD
10
-0.950000
20
-0.412000
41
0.080000
42
0.080000
50
-90.000000
0
CIRCLE
8
0
10
-0.950000
20
-0.412000
40
0.025000
0
INSERT
8
0
2
RPAD
10
-0.950000
20
-0.512000
41
0.080000
42
0.080000
50
-90.000000
0
CIRCLE
8
0
10
-0.950000
20
-0.512000
40
0.025000
0
INSERT
8
0
2
RPAD
10
-0.950000
20
-0.612000
41
0.080000
42
0.080000
50
-90.000000
0
CIRCLE
8
0
10
-0.950000
20
-0.612000
40
0.025000
0
INSERT
8
0
2
RPAD
10
-0.950000
20
-0.712000
41
0.080000
42
0.080000
50
-90.000000
0
CIRCLE
8
0
10
-0.950000
20
-0.712000
40
0.025000
0
INSERT
8
0
2
RPAD
10
-0.950000
20
-0.812000
41
0.080000
42
0.080000
50
-90.000000
0
CIRCLE
8
0
10
-0.950000
20
-0.812000
40
0.025000
0
INSERT
8
0
2
RPAD
10
-0.950000
20
-0.912000
41
0.080000
42
0.080000
50
-90.000000
0
CIRCLE
8
0
10
-0.950000
20
-0.912000
40
0.025000
0
INSERT
8
0
2
RPAD
10
-0.950000
20
-1.012000
41
0.080000
42
0.080000
50
-90.000000
0
CIRCLE
8
0
10
-0.950000
20
-1.012000
40
0.025000
0
INSERT
8
0
2
RPAD
10
-0.950000
20
-1.112000
41
0.080000
42
0.080000
50
-90.000000
0
CIRCLE
8
0
10
-0.950000
20
-1.112000
40
0.025000
0
INSERT
8
0
2
RPAD
10
-2.850000
20
-0.262000
41
0.080000
42
0.080000
50
-90.000000
0
CIRCLE
8
0
10
-2.850000
20
-0.262000
40
0.025000
0
INSERT
8
0
2
RPAD
10
-2.850000
20
-0.362000
41
0.080000
42
0.080000
50
-90.000000
0
CIRCLE
8
0
10
-2.850000
20
-0.362000
40
0.025000
0
INSERT
8
0
2
RPAD
10
-2.850000
20
-0.462000
41
0.080000
42
0.080000
50
-90.000000
0
CIRCLE
8
0
10
-2.850000
20
-0.462000
40
0.025000
0
INSERT
8
0
2
RPAD
10
-2.850000
20
-0.562000
41
0.080000
42
0.080000
50
-90.000000
0
CIRCLE
8
0
10
-2.850000
20
-0.562000
40
0.025000
0
INSERT
8
0
2
RPAD
10
-2.850000
20
-0.662000
41
0.080000
42
0.080000
50
-90.000000
0
CIRCLE
8
0
10
-2.850000
20
-0.662000
40
0.025000
0
INSERT
8
0
2
RPAD
10
-2.850000
20
-0.762000
41
0.080000
42
0.080000
50
-90.000000
0
CIRCLE
8
0
10
-2.850000
20
-0.762000
40
0.025000
0
INSERT
8
0
2
RPAD
10
-2.850000
20
0.637000
41
0.080000
42
0.080000
50
-90.000000
0
CIRCLE
8
0
10
-2.850000
20
0.637000
40
0.025000
0
INSERT
8
0
2
RPAD
10
-2.850000
20
0.537000
41
0.080000
42
0.080000
50
-90.000000
0
CIRCLE
8
0
10
-2.850000
20
0.537000
40
0.025000
0
INSERT
8
0
2
RPAD
10
-2.850000
20
0.437000
41
0.080000
42
0.080000
50
-90.000000
0
CIRCLE
8
0
10
-2.850000
20
0.437000
40
0.025000
0
INSERT
8
0
2
RPAD
10
-2.850000
20
0.337000
41
0.080000
42
0.080000
50
-90.000000
0
CIRCLE
8
0
10
-2.850000
20
0.337000
40
0.025000
0
INSERT
8
0
2
RPAD
10
-2.850000
20
0.237000
41
0.080000
42
0.080000
50
-90.000000
0
CIRCLE
8
0
10
-2.850000
20
0.237000
40
0.025000
0
INSERT
8
0
2
RPAD
10
-2.850000
20
0.137000
41
0.080000
42
0.080000
50
-90.000000
0
CIRCLE
8
0
10
-2.850000
20
0.137000
40
0.025000
0
INSERT
8
0
2
RPAD
10
-2.850000
20
0.037000
41
0.080000
42
0.080000
50
-90.000000
0
CIRCLE
8
0
10
-2.850000
20
0.037000
40
0.025000
0
INSERT
8
0
2
RPAD
10
-2.850000
20
-0.062000
41
0.080000
42
0.080000
50
-90.000000
0
CIRCLE
8
0
10
-2.850000
20
-0.062000
40
0.025000
0
INSERT
8
0
2
RPAD
10
-2.850000
20
1.537000
41
0.080000
42
0.080000
50
-90.000000
0
CIRCLE
8
0
10
-2.850000
20
1.537000
40
0.025000
0
INSERT
8
0
2
RPAD
10
-2.850000
20
1.437000
41
0.080000
42
0.080000
50
-90.000000
0
CIRCLE
8
0
10
-2.850000
20
1.437000
40
0.025000
0
INSERT
8
0
2
RPAD
10
-2.850000
20
1.337000
41
0.080000
42
0.080000
50
-90.000000
0
CIRCLE
8
0
10
-2.850000
20
1.337000
40
0.025000
0
INSERT
8
0
2
RPAD
10
-2.850000
20
1.237000
41
0.080000
42
0.080000
50
-90.000000
0
CIRCLE
8
0
10
-2.850000
20
1.237000
40
0.025000
0
INSERT
8
0
2
RPAD
10
-2.850000
20
1.137000
41
0.080000
42
0.080000
50
-90.000000
0
CIRCLE
8
0
10
-2.850000
20
1.137000
40
0.025000
0
INSERT
8
0
2
RPAD
10
-2.850000
20
1.037000
41
0.080000
42
0.080000
50
-90.000000
0
CIRCLE
8
0
10
-2.850000
20
1.037000
40
0.025000
0
INSERT
8
0
2
RPAD
10
-2.850000
20
0.937000
41
0.080000
42
0.080000
50
-90.000000
0
CIRCLE
8
0
10
-2.850000
20
0.937000
40
0.025000
0
INSERT
8
0
2
RPAD
10
-2.850000
20
0.837000
41
0.080000
42
0.080000
50
-90.000000
0
CIRCLE
8
0
10
-2.850000
20
0.837000
40
0.025000
0
INSERT
8
0
2
RPAD
10
-2.650000
20
1.737000
41
0.080000
42
0.080000
50
-90.000000
0
CIRCLE
8
0
10
-2.650000
20
1.737000
40
0.025000
0
INSERT
8
0
2
RPAD
10
-2.650000
20
1.637000
41
0.080000
42
0.080000
50
-90.000000
0
CIRCLE
8
0
10
-2.650000
20
1.637000
40
0.025000
0
INSERT
8
0
2
RPAD
10
2.600000
20
-0.087000
41
0.080000
42
0.080000
50
90.000000
0
CIRCLE
8
0
10
2.600000
20
-0.087000
40
0.025000
0
INSERT
8
0
2
RPAD
10
2.600000
20
0.012000
41
0.080000
42
0.080000
50
90.000000
0
CIRCLE
8
0
10
2.600000
20
0.012000
40
0.025000
0
INSERT
8
0
2
RPAD
10
2.600000
20
0.112000
41
0.080000
42
0.080000
50
90.000000
0
CIRCLE
8
0
10
2.600000
20
0.112000
40
0.025000
0
INSERT
8
0
2
RPAD
10
2.600000
20
0.212000
41
0.080000
42
0.080000
50
90.000000
0
CIRCLE
8
0
10
2.600000
20
0.212000
40
0.025000
0
INSERT
8
0
2
RPAD
10
2.600000
20
0.312000
41
0.080000
42
0.080000
50
90.000000
0
CIRCLE
8
0
10
2.600000
20
0.312000
40
0.025000
0
INSERT
8
0
2
RPAD
10
2.600000
20
0.412000
41
0.080000
42
0.080000
50
90.000000
0
CIRCLE
8
0
10
2.600000
20
0.412000
40
0.025000
0
INSERT
8
0
2
RPAD
10
2.600000
20
0.512000
41
0.080000
42
0.080000
50
90.000000
0
CIRCLE
8
0
10
2.600000
20
0.512000
40
0.025000
0
INSERT
8
0
2
RPAD
10
2.600000
20
0.612000
41
0.080000
42
0.080000
50
90.000000
0
CIRCLE
8
0
10
2.600000
20
0.612000
40
0.025000
0
INSERT
8
0
2
EPAD
10
2.500000
20
0.787000
41
0.080000
42
0.080000
0
CIRCLE
8
0
10
2.500000
20
0.787000
40
0.025000
0
INSERT
8
0
2
EPAD
10
2.400000
20
0.787000
41
0.080000
42
0.080000
0
CIRCLE
8
0
10
2.400000
20
0.787000
40
0.025000
0
INSERT
8
0
2
EPAD
10
2.500000
20
0.612000
41
0.070000
42
0.070000
0
CIRCLE
8
0
10
2.500000
20
0.612000
40
0.025000
0
INSERT
8
0
2
EPAD
10
2.100000
20
0.612000
41
0.070000
42
0.070000
0
CIRCLE
8
0
10
2.100000
20
0.612000
40
0.025000
0
INSERT
8
0
2
RPAD
10
2.375000
20
0.112000
41
0.080000
42
0.080000
50
90.000000
0
CIRCLE
8
0
10
2.375000
20
0.112000
40
0.025000
0
INSERT
8
0
2
RPAD
10
2.375000
20
0.212000
41
0.080000
42
0.080000
50
90.000000
0
CIRCLE
8
0
10
2.375000
20
0.212000
40
0.025000
0
INSERT
8
0
2
RPAD
10
2.375000
20
0.312000
41
0.080000
42
0.080000
50
90.000000
0
CIRCLE
8
0
10
2.375000
20
0.312000
40
0.025000
0
INSERT
8
0
2
RPAD
10
2.600000
20
0.987000
41
0.080000
42
0.080000
50
90.000000
0
CIRCLE
8
0
10
2.600000
20
0.987000
40
0.025000
0
INSERT
8
0
2
RPAD
10
2.600000
20
1.087000
41
0.080000
42
0.080000
50
90.000000
0
CIRCLE
8
0
10
2.600000
20
1.087000
40
0.025000
0
INSERT
8
0
2
RPAD
10
2.600000
20
1.187000
41
0.080000
42
0.080000
50
90.000000
0
CIRCLE
8
0
10
2.600000
20
1.187000
40
0.025000
0
INSERT
8
0
2
RPAD
10
2.600000
20
1.287000
41
0.080000
42
0.080000
50
90.000000
0
CIRCLE
8
0
10
2.600000
20
1.287000
40
0.025000
0
INSERT
8
0
2
RPAD
10
2.600000
20
1.387000
41
0.080000
42
0.080000
50
90.000000
0
CIRCLE
8
0
10
2.600000
20
1.387000
40
0.025000
0
INSERT
8
0
2
RPAD
10
2.600000
20
1.487000
41
0.080000
42
0.080000
50
90.000000
0
CIRCLE
8
0
10
2.600000
20
1.487000
40
0.025000
0
INSERT
8
0
2
RPAD
10
2.600000
20
1.587000
41
0.080000
42
0.080000
50
90.000000
0
CIRCLE
8
0
10
2.600000
20
1.587000
40
0.025000
0
INSERT
8
0
2
RPAD
10
2.600000
20
1.687000
41
0.080000
42
0.080000
50
90.000000
0
CIRCLE
8
0
10
2.600000
20
1.687000
40
0.025000
0
INSERT
8
0
2
EPAD
10
2.500000
20
1.687000
41
0.070000
42
0.070000
0
CIRCLE
8
0
10
2.500000
20
1.687000
40
0.025000
0
INSERT
8
0
2
EPAD
10
2.100000
20
1.687000
41
0.070000
42
0.070000
0
CIRCLE
8
0
10
2.100000
20
1.687000
40
0.025000
0
INSERT
8
0
2
EPAD
10
2.500000
20
1.862000
41
0.080000
42
0.080000
0
CIRCLE
8
0
10
2.500000
20
1.862000
40
0.025000
0
INSERT
8
0
2
EPAD
10
2.400000
20
1.862000
41
0.080000
42
0.080000
0
CIRCLE
8
0
10
2.400000
20
1.862000
40
0.025000
0
INSERT
8
0
2
RPAD
10
2.375000
20
1.187000
41
0.080000
42
0.080000
50
90.000000
0
CIRCLE
8
0
10
2.375000
20
1.187000
40
0.025000
0
INSERT
8
0
2
RPAD
10
2.375000
20
1.287000
41
0.080000
42
0.080000
50
90.000000
0
CIRCLE
8
0
10
2.375000
20
1.287000
40
0.025000
0
INSERT
8
0
2
RPAD
10
2.375000
20
1.387000
41
0.080000
42
0.080000
50
90.000000
0
CIRCLE
8
0
10
2.375000
20
1.387000
40
0.025000
0
INSERT
8
0
2
EPAD
10
-2.700000
20
-0.062000
41
0.080000
42
0.080000
0
CIRCLE
8
0
10
-2.700000
20
-0.062000
40
0.010000
0
INSERT
8
0
2
EPAD
10
-2.600000
20
0.037000
41
0.080000
42
0.080000
0
CIRCLE
8
0
10
-2.600000
20
0.037000
40
0.010000
0
INSERT
8
0
2
EPAD
10
-2.500000
20
0.137000
41
0.080000
42
0.080000
0
CIRCLE
8
0
10
-2.500000
20
0.137000
40
0.010000
0
INSERT
8
0
2
EPAD
10
-2.500000
20
-1.862000
41
0.080000
42
0.080000
0
CIRCLE
8
0
10
-2.500000
20
-1.862000
40
0.010000
0
INSERT
8
0
2
EPAD
10
-2.600000
20
-1.787000
41
0.080000
42
0.080000
0
CIRCLE
8
0
10
-2.600000
20
-1.787000
40
0.010000
0
INSERT
8
0
2
EPAD
10
-2.700000
20
-1.712000
41
0.080000
42
0.080000
0
CIRCLE
8
0
10
-2.700000
20
-1.712000
40
0.010000
0
INSERT
8
0
2
RPAD
10
-0.400000
20
-1.337000
41
0.080000
42
0.080000
50
-90.000000
0
CIRCLE
8
0
10
-0.400000
20
-1.337000
40
0.025000
0
INSERT
8
0
2
RPAD
10
-0.400000
20
-1.437000
41
0.080000
42
0.080000
50
-90.000000
0
CIRCLE
8
0
10
-0.400000
20
-1.437000
40
0.025000
0
INSERT
8
0
2
RPAD
10
-0.400000
20
-1.537000
41
0.080000
42
0.080000
50
-90.000000
0
CIRCLE
8
0
10
-0.400000
20
-1.537000
40
0.025000
0
INSERT
8
0
2
EPAD
10
-0.100000
20
-1.562000
41
0.070000
42
0.070000
0
CIRCLE
8
0
10
-0.100000
20
-1.562000
40
0.025000
0
INSERT
8
0
2
EPAD
10
-0.100000
20
-1.162000
41
0.070000
42
0.070000
0
CIRCLE
8
0
10
-0.100000
20
-1.162000
40
0.025000
0
INSERT
8
0
2
RPAD
10
-0.650000
20
-1.437000
41
0.080000
42
0.080000
50
0.000000
0
CIRCLE
8
0
10
-0.650000
20
-1.437000
40
0.025000
0
INSERT
8
0
2
RPAD
10
-0.550000
20
-1.437000
41
0.080000
42
0.080000
50
0.000000
0
CIRCLE
8
0
10
-0.550000
20
-1.437000
40
0.025000
0
INSERT
8
0
2
EPAD
10
1.850000
20
-1.487000
41
0.080000
42
0.080000
0
CIRCLE
8
0
10
1.850000
20
-1.487000
40
0.010000
0
INSERT
8
0
2
EPAD
10
1.950000
20
-1.487000
41
0.080000
42
0.080000
0
CIRCLE
8
0
10
1.950000
20
-1.487000
40
0.010000
0
INSERT
8
0
2
EPAD
10
2.050000
20
-1.487000
41
0.080000
42
0.080000
0
CIRCLE
8
0
10
2.050000
20
-1.487000
40
0.010000
0
INSERT
8
0
2
EPAD
10
0.875000
20
-1.487000
41
0.080000
42
0.080000
0
CIRCLE
8
0
10
0.875000
20
-1.487000
40
0.010000
0
INSERT
8
0
2
EPAD
10
0.975000
20
-1.487000
41
0.080000
42
0.080000
0
CIRCLE
8
0
10
0.975000
20
-1.487000
40
0.010000
0
INSERT
8
0
2
EPAD
10
1.075000
20
-1.487000
41
0.080000
42
0.080000
0
CIRCLE
8
0
10
1.075000
20
-1.487000
40
0.010000
0
INSERT
8
0
2
EPAD
10
0.000000
20
-1.637000
41
0.080000
42
0.080000
0
CIRCLE
8
0
10
0.000000
20
-1.637000
40
0.010000
0
INSERT
8
0
2
EPAD
10
0.400000
20
-1.237000
41
0.080000
42
0.080000
0
CIRCLE
8
0
10
0.400000
20
-1.237000
40
0.010000
0
INSERT
8
0
2
EPAD
10
2.300000
20
-1.137000
41
0.080000
42
0.080000
0
CIRCLE
8
0
10
2.300000
20
-1.137000
40
0.010000
0
INSERT
8
0
2
EPAD
10
2.000000
20
-1.137000
41
0.080000
42
0.080000
0
CIRCLE
8
0
10
2.000000
20
-1.137000
40
0.010000
0
INSERT
8
0
2
EPAD
10
-2.400000
20
-0.562000
41
0.080000
42
0.080000
0
CIRCLE
8
0
10
-2.400000
20
-0.562000
40
0.010000
0
INSERT
8
0
2
EPAD
10
-2.400000
20
-1.612000
41
0.080000
42
0.080000
0
CIRCLE
8
0
10
-2.400000
20
-1.612000
40
0.010000
0
INSERT
8
0
2
EPAD
10
2.050000
20
-1.237000
41
0.070000
42
0.070000
0
CIRCLE
8
0
10
2.050000
20
-1.237000
40
0.025000
0
INSERT
8
0
2
EPAD
10
2.450000
20
-1.237000
41
0.070000
42
0.070000
0
CIRCLE
8
0
10
2.450000
20
-1.237000
40
0.025000
0
INSERT
8
0
2
RPAD
10
2.500000
20
-1.512000
41
0.080000
42
0.080000
50
180.000000
0
CIRCLE
8
0
10
2.500000
20
-1.512000
40
0.025000
0
INSERT
8
0
2
RPAD
10
2.400000
20
-1.512000
41
0.080000
42
0.080000
50
180.000000
0
CIRCLE
8
0
10
2.400000
20
-1.512000
40
0.025000
0
INSERT
8
0
2
EPAD
10
-0.800000
20
1.637000
41
0.080000
42
0.080000
0
CIRCLE
8
0
10
-0.800000
20
1.637000
40
0.010000
0
INSERT
8
0
2
EPAD
10
-0.800000
20
-1.512000
41
0.080000
42
0.080000
0
CIRCLE
8
0
10
-0.800000
20
-1.512000
40
0.010000
0
INSERT
8
0
2
EPAD
10
2.400000
20
1.587000
41
0.080000
42
0.080000
0
CIRCLE
8
0
10
2.400000
20
1.587000
40
0.010000
0
INSERT
8
0
2
EPAD
10
2.400000
20
0.512000
41
0.080000
42
0.080000
0
CIRCLE
8
0
10
2.400000
20
0.512000
40
0.010000
0
INSERT
8
0
2
EPAD
10
2.400000
20
-0.587000
41
0.080000
42
0.080000
0
CIRCLE
8
0
10
2.400000
20
-0.587000
40
0.010000
0
INSERT
8
0
2
EPAD
10
1.900000
20
1.587000
41
0.080000
42
0.080000
0
CIRCLE
8
0
10
1.900000
20
1.587000
40
0.010000
0
INSERT
8
0
2
EPAD
10
1.900000
20
0.512000
41
0.080000
42
0.080000
0
CIRCLE
8
0
10
1.900000
20
0.512000
40
0.010000
0
INSERT
8
0
2
EPAD
10
1.900000
20
-0.587000
41
0.080000
42
0.080000
0
CIRCLE
8
0
10
1.900000
20
-0.587000
40
0.010000
0
INSERT
8
0
2
EPAD
10
2.850000
20
1.912000
41
0.150000
42
0.150000
0
CIRCLE
8
0
10
2.850000
20
1.912000
40
0.030000
0
INSERT
8
0
2
EPAD
10
-2.875000
20
1.937000
41
0.150000
42
0.150000
0
CIRCLE
8
0
10
-2.875000
20
1.937000
40
0.030000
0
INSERT
8
0
2
EPAD
10
2.650000
20
-1.387000
41
0.150000
42
0.150000
0
CIRCLE
8
0
10
2.650000
20
-1.387000
40
0.030000
0
INSERT
8
0
2
EPAD
10
-2.850000
20
-1.787000
41
0.150000
42
0.150000
0
CIRCLE
8
0
10
-2.850000
20
-1.787000
40
0.030000
0
INSERT
8
0
2
RPAD
10
-0.700000
20
-0.887000
41
0.080000
42
0.080000
50
0.000000
0
CIRCLE
8
0
10
-0.700000
20
-0.887000
40
0.025000
0
INSERT
8
0
2
RPAD
10
-0.600000
20
-0.887000
41
0.080000
42
0.080000
50
0.000000
0
CIRCLE
8
0
10
-0.600000
20
-0.887000
40
0.025000
0
INSERT
8
0
2
RPAD
10
-0.500000
20
-0.887000
41
0.080000
42
0.080000
50
0.000000
0
CIRCLE
8
0
10
-0.500000
20
-0.887000
40
0.025000
0
INSERT
8
0
2
RPAD
10
-0.700000
20
-0.787000
41
0.080000
42
0.080000
50
0.000000
0
CIRCLE
8
0
10
-0.700000
20
-0.787000
40
0.025000
0
INSERT
8
0
2
RPAD
10
-0.600000
20
-0.787000
41
0.080000
42
0.080000
50
0.000000
0
CIRCLE
8
0
10
-0.600000
20
-0.787000
40
0.025000
0
INSERT
8
0
2
RPAD
10
-0.500000
20
-0.787000
41
0.080000
42
0.080000
50
0.000000
0
CIRCLE
8
0
10
-0.500000
20
-0.787000
40
0.025000
0
INSERT
8
0
2
RPAD
10
-0.700000
20
-0.687000
41
0.080000
42
0.080000
50
0.000000
0
CIRCLE
8
0
10
-0.700000
20
-0.687000
40
0.025000
0
INSERT
8
0
2
RPAD
10
-0.600000
20
-0.687000
41
0.080000
42
0.080000
50
0.000000
0
CIRCLE
8
0
10
-0.600000
20
-0.687000
40
0.025000
0
INSERT
8
0
2
RPAD
10
-0.500000
20
-0.687000
41
0.080000
42
0.080000
50
0.000000
0
CIRCLE
8
0
10
-0.500000
20
-0.687000
40
0.025000
0
INSERT
8
0
2
RPAD
10
-0.700000
20
-0.587000
41
0.080000
42
0.080000
50
0.000000
0
CIRCLE
8
0
10
-0.700000
20
-0.587000
40
0.025000
0
INSERT
8
0
2
RPAD
10
-0.600000
20
-0.587000
41
0.080000
42
0.080000
50
0.000000
0
CIRCLE
8
0
10
-0.600000
20
-0.587000
40
0.025000
0
INSERT
8
0
2
RPAD
10
-0.500000
20
-0.587000
41
0.080000
42
0.080000
50
0.000000
0
CIRCLE
8
0
10
-0.500000
20
-0.587000
40
0.025000
0
INSERT
8
0
2
RPAD
10
-0.700000
20
-0.487000
41
0.080000
42
0.080000
50
0.000000
0
CIRCLE
8
0
10
-0.700000
20
-0.487000
40
0.025000
0
INSERT
8
0
2
RPAD
10
-0.600000
20
-0.487000
41
0.080000
42
0.080000
50
0.000000
0
CIRCLE
8
0
10
-0.600000
20
-0.487000
40
0.025000
0
INSERT
8
0
2
RPAD
10
-0.500000
20
-0.487000
41
0.080000
42
0.080000
50
0.000000
0
CIRCLE
8
0
10
-0.500000
20
-0.487000
40
0.025000
0
INSERT
8
0
2
RPAD
10
-0.700000
20
-0.387000
41
0.080000
42
0.080000
50
0.000000
0
CIRCLE
8
0
10
-0.700000
20
-0.387000
40
0.025000
0
INSERT
8
0
2
RPAD
10
-0.600000
20
-0.387000
41
0.080000
42
0.080000
50
0.000000
0
CIRCLE
8
0
10
-0.600000
20
-0.387000
40
0.025000
0
INSERT
8
0
2
RPAD
10
-0.500000
20
-0.387000
41
0.080000
42
0.080000
50
0.000000
0
CIRCLE
8
0
10
-0.500000
20
-0.387000
40
0.025000
0
INSERT
8
0
2
RPAD
10
0.075000
20
1.037000
41
0.080000
42
0.080000
50
180.000000
0
CIRCLE
8
0
10
0.075000
20
1.037000
40
0.025000
0
INSERT
8
0
2
RPAD
10
-0.025000
20
1.037000
41
0.080000
42
0.080000
50
180.000000
0
CIRCLE
8
0
10
-0.025000
20
1.037000
40
0.025000
0
INSERT
8
0
2
RPAD
10
-0.125000
20
1.037000
41
0.080000
42
0.080000
50
180.000000
0
CIRCLE
8
0
10
-0.125000
20
1.037000
40
0.025000
0
INSERT
8
0
2
RPAD
10
-0.225000
20
1.037000
41
0.080000
42
0.080000
50
180.000000
0
CIRCLE
8
0
10
-0.225000
20
1.037000
40
0.025000
0
INSERT
8
0
2
RPAD
10
-0.325000
20
1.037000
41
0.080000
42
0.080000
50
180.000000
0
CIRCLE
8
0
10
-0.325000
20
1.037000
40
0.025000
0
INSERT
8
0
2
RPAD
10
-0.425000
20
1.037000
41
0.080000
42
0.080000
50
180.000000
0
CIRCLE
8
0
10
-0.425000
20
1.037000
40
0.025000
0
INSERT
8
0
2
RPAD
10
-0.525000
20
1.037000
41
0.080000
42
0.080000
50
180.000000
0
CIRCLE
8
0
10
-0.525000
20
1.037000
40
0.025000
0
INSERT
8
0
2
RPAD
10
-0.625000
20
1.037000
41
0.080000
42
0.080000
50
180.000000
0
CIRCLE
8
0
10
-0.625000
20
1.037000
40
0.025000
0
INSERT
8
0
2
RPAD
10
-0.625000
20
1.637000
41
0.080000
42
0.080000
50
0.000000
0
CIRCLE
8
0
10
-0.625000
20
1.637000
40
0.025000
0
INSERT
8
0
2
RPAD
10
-0.525000
20
1.637000
41
0.080000
42
0.080000
50
0.000000
0
CIRCLE
8
0
10
-0.525000
20
1.637000
40
0.025000
0
INSERT
8
0
2
RPAD
10
-0.425000
20
1.637000
41
0.080000
42
0.080000
50
0.000000
0
CIRCLE
8
0
10
-0.425000
20
1.637000
40
0.025000
0
INSERT
8
0
2
RPAD
10
-0.325000
20
1.637000
41
0.080000
42
0.080000
50
0.000000
0
CIRCLE
8
0
10
-0.325000
20
1.637000
40
0.025000
0
INSERT
8
0
2
RPAD
10
-0.225000
20
1.637000
41
0.080000
42
0.080000
50
0.000000
0
CIRCLE
8
0
10
-0.225000
20
1.637000
40
0.025000
0
INSERT
8
0
2
RPAD
10
-0.125000
20
1.637000
41
0.080000
42
0.080000
50
0.000000
0
CIRCLE
8
0
10
-0.125000
20
1.637000
40
0.025000
0
INSERT
8
0
2
RPAD
10
-0.025000
20
1.637000
41
0.080000
42
0.080000
50
0.000000
0
CIRCLE
8
0
10
-0.025000
20
1.637000
40
0.025000
0
INSERT
8
0
2
RPAD
10
0.075000
20
1.637000
41
0.080000
42
0.080000
50
0.000000
0
CIRCLE
8
0
10
0.075000
20
1.637000
40
0.025000
0
INSERT
8
0
2
RPAD
10
1.025000
20
1.037000
41
0.080000
42
0.080000
50
180.000000
0
CIRCLE
8
0
10
1.025000
20
1.037000
40
0.025000
0
INSERT
8
0
2
RPAD
10
0.925000
20
1.037000
41
0.080000
42
0.080000
50
180.000000
0
CIRCLE
8
0
10
0.925000
20
1.037000
40
0.025000
0
INSERT
8
0
2
RPAD
10
0.825000
20
1.037000
41
0.080000
42
0.080000
50
180.000000
0
CIRCLE
8
0
10
0.825000
20
1.037000
40
0.025000
0
INSERT
8
0
2
RPAD
10
0.725000
20
1.037000
41
0.080000
42
0.080000
50
180.000000
0
CIRCLE
8
0
10
0.725000
20
1.037000
40
0.025000
0
INSERT
8
0
2
RPAD
10
0.625000
20
1.037000
41
0.080000
42
0.080000
50
180.000000
0
CIRCLE
8
0
10
0.625000
20
1.037000
40
0.025000
0
INSERT
8
0
2
RPAD
10
0.525000
20
1.037000
41
0.080000
42
0.080000
50
180.000000
0
CIRCLE
8
0
10
0.525000
20
1.037000
40
0.025000
0
INSERT
8
0
2
RPAD
10
0.425000
20
1.037000
41
0.080000
42
0.080000
50
180.000000
0
CIRCLE
8
0
10
0.425000
20
1.037000
40
0.025000
0
INSERT
8
0
2
RPAD
10
0.325000
20
1.037000
41
0.080000
42
0.080000
50
180.000000
0
CIRCLE
8
0
10
0.325000
20
1.037000
40
0.025000
0
INSERT
8
0
2
RPAD
10
0.325000
20
1.637000
41
0.080000
42
0.080000
50
0.000000
0
CIRCLE
8
0
10
0.325000
20
1.637000
40
0.025000
0
INSERT
8
0
2
RPAD
10
0.425000
20
1.637000
41
0.080000
42
0.080000
50
0.000000
0
CIRCLE
8
0
10
0.425000
20
1.637000
40
0.025000
0
INSERT
8
0
2
RPAD
10
0.525000
20
1.637000
41
0.080000
42
0.080000
50
0.000000
0
CIRCLE
8
0
10
0.525000
20
1.637000
40
0.025000
0
INSERT
8
0
2
RPAD
10
0.625000
20
1.637000
41
0.080000
42
0.080000
50
0.000000
0
CIRCLE
8
0
10
0.625000
20
1.637000
40
0.025000
0
INSERT
8
0
2
RPAD
10
0.725000
20
1.637000
41
0.080000
42
0.080000
50
0.000000
0
CIRCLE
8
0
10
0.725000
20
1.637000
40
0.025000
0
INSERT
8
0
2
RPAD
10
0.825000
20
1.637000
41
0.080000
42
0.080000
50
0.000000
0
CIRCLE
8
0
10
0.825000
20
1.637000
40
0.025000
0
INSERT
8
0
2
RPAD
10
0.925000
20
1.637000
41
0.080000
42
0.080000
50
0.000000
0
CIRCLE
8
0
10
0.925000
20
1.637000
40
0.025000
0
INSERT
8
0
2
RPAD
10
1.025000
20
1.637000
41
0.080000
42
0.080000
50
0.000000
0
CIRCLE
8
0
10
1.025000
20
1.637000
40
0.025000
0
INSERT
8
0
2
EPAD
10
-0.025000
20
1.762000
41
0.080000
42
0.080000
0
CIRCLE
8
0
10
-0.025000
20
1.762000
40
0.010000
0
INSERT
8
0
2
EPAD
10
0.925000
20
1.762000
41
0.080000
42
0.080000
0
CIRCLE
8
0
10
0.925000
20
1.762000
40
0.010000
0
INSERT
8
0
2
EPAD
10
-0.625000
20
1.487000
41
0.080000
42
0.080000
0
CIRCLE
8
0
10
-0.625000
20
1.487000
40
0.025000
0
INSERT
8
0
2
EPAD
10
-0.525000
20
1.487000
41
0.080000
42
0.080000
0
CIRCLE
8
0
10
-0.525000
20
1.487000
40
0.025000
0
INSERT
8
0
2
EPAD
10
0.325000
20
1.487000
41
0.080000
42
0.080000
0
CIRCLE
8
0
10
0.325000
20
1.487000
40
0.025000
0
INSERT
8
0
2
EPAD
10
0.425000
20
1.487000
41
0.080000
42
0.080000
0
CIRCLE
8
0
10
0.425000
20
1.487000
40
0.025000
0
INSERT
8
0
2
EPAD
10
-0.325000
20
1.137000
41
0.080000
42
0.080000
0
CIRCLE
8
0
10
-0.325000
20
1.137000
40
0.010000
0
INSERT
8
0
2
EPAD
10
0.425000
20
1.137000
41
0.080000
42
0.080000
0
CIRCLE
8
0
10
0.425000
20
1.137000
40
0.010000
0
INSERT
8
0
2
RPAD
10
1.425000
20
0.037000
41
0.080000
42
0.080000
50
180.000000
0
CIRCLE
8
0
10
1.425000
20
0.037000
40
0.025000
0
INSERT
8
0
2
RPAD
10
1.325000
20
0.037000
41
0.080000
42
0.080000
50
180.000000
0
CIRCLE
8
0
10
1.325000
20
0.037000
40
0.025000
0
INSERT
8
0
2
RPAD
10
1.225000
20
0.037000
41
0.080000
42
0.080000
50
180.000000
0
CIRCLE
8
0
10
1.225000
20
0.037000
40
0.025000
0
INSERT
8
0
2
RPAD
10
1.125000
20
0.037000
41
0.080000
42
0.080000
50
180.000000
0
CIRCLE
8
0
10
1.125000
20
0.037000
40
0.025000
0
INSERT
8
0
2
RPAD
10
1.025000
20
0.037000
41
0.080000
42
0.080000
50
180.000000
0
CIRCLE
8
0
10
1.025000
20
0.037000
40
0.025000
0
INSERT
8
0
2
RPAD
10
0.925000
20
0.037000
41
0.080000
42
0.080000
50
180.000000
0
CIRCLE
8
0
10
0.925000
20
0.037000
40
0.025000
0
INSERT
8
0
2
RPAD
10
0.825000
20
0.037000
41
0.080000
42
0.080000
50
180.000000
0
CIRCLE
8
0
10
0.825000
20
0.037000
40
0.025000
0
INSERT
8
0
2
RPAD
10
0.725000
20
0.037000
41
0.080000
42
0.080000
50
180.000000
0
CIRCLE
8
0
10
0.725000
20
0.037000
40
0.025000
0
INSERT
8
0
2
RPAD
10
0.725000
20
0.637000
41
0.080000
42
0.080000
50
0.000000
0
CIRCLE
8
0
10
0.725000
20
0.637000
40
0.025000
0
INSERT
8
0
2
RPAD
10
0.825000
20
0.637000
41
0.080000
42
0.080000
50
0.000000
0
CIRCLE
8
0
10
0.825000
20
0.637000
40
0.025000
0
INSERT
8
0
2
RPAD
10
0.925000
20
0.637000
41
0.080000
42
0.080000
50
0.000000
0
CIRCLE
8
0
10
0.925000
20
0.637000
40
0.025000
0
INSERT
8
0
2
RPAD
10
1.025000
20
0.637000
41
0.080000
42
0.080000
50
0.000000
0
CIRCLE
8
0
10
1.025000
20
0.637000
40
0.025000
0
INSERT
8
0
2
RPAD
10
1.125000
20
0.637000
41
0.080000
42
0.080000
50
0.000000
0
CIRCLE
8
0
10
1.125000
20
0.637000
40
0.025000
0
INSERT
8
0
2
RPAD
10
1.225000
20
0.637000
41
0.080000
42
0.080000
50
0.000000
0
CIRCLE
8
0
10
1.225000
20
0.637000
40
0.025000
0
INSERT
8
0
2
RPAD
10
1.325000
20
0.637000
41
0.080000
42
0.080000
50
0.000000
0
CIRCLE
8
0
10
1.325000
20
0.637000
40
0.025000
0
INSERT
8
0
2
RPAD
10
1.425000
20
0.637000
41
0.080000
42
0.080000
50
0.000000
0
CIRCLE
8
0
10
1.425000
20
0.637000
40
0.025000
0
INSERT
8
0
2
RPAD
10
-0.325000
20
0.637000
41
0.080000
42
0.080000
50
0.000000
0
CIRCLE
8
0
10
-0.325000
20
0.637000
40
0.025000
0
INSERT
8
0
2
RPAD
10
-0.225000
20
0.637000
41
0.080000
42
0.080000
50
0.000000
0
CIRCLE
8
0
10
-0.225000
20
0.637000
40
0.025000
0
INSERT
8
0
2
RPAD
10
-0.125000
20
0.637000
41
0.080000
42
0.080000
50
0.000000
0
CIRCLE
8
0
10
-0.125000
20
0.637000
40
0.025000
0
INSERT
8
0
2
RPAD
10
-0.025000
20
0.637000
41
0.080000
42
0.080000
50
0.000000
0
CIRCLE
8
0
10
-0.025000
20
0.637000
40
0.025000
0
INSERT
8
0
2
RPAD
10
0.075000
20
0.637000
41
0.080000
42
0.080000
50
0.000000
0
CIRCLE
8
0
10
0.075000
20
0.637000
40
0.025000
0
INSERT
8
0
2
RPAD
10
0.175000
20
0.637000
41
0.080000
42
0.080000
50
0.000000
0
CIRCLE
8
0
10
0.175000
20
0.637000
40
0.025000
0
INSERT
8
0
2
RPAD
10
0.275000
20
0.637000
41
0.080000
42
0.080000
50
0.000000
0
CIRCLE
8
0
10
0.275000
20
0.637000
40
0.025000
0
INSERT
8
0
2
RPAD
10
0.375000
20
0.637000
41
0.080000
42
0.080000
50
0.000000
0
CIRCLE
8
0
10
0.375000
20
0.637000
40
0.025000
0
INSERT
8
0
2
RPAD
10
0.375000
20
0.037000
41
0.080000
42
0.080000
50
-180.000000
0
CIRCLE
8
0
10
0.375000
20
0.037000
40
0.025000
0
INSERT
8
0
2
RPAD
10
0.275000
20
0.037000
41
0.080000
42
0.080000
50
-180.000000
0
CIRCLE
8
0
10
0.275000
20
0.037000
40
0.025000
0
INSERT
8
0
2
RPAD
10
0.175000
20
0.037000
41
0.080000
42
0.080000
50
-180.000000
0
CIRCLE
8
0
10
0.175000
20
0.037000
40
0.025000
0
INSERT
8
0
2
RPAD
10
0.075000
20
0.037000
41
0.080000
42
0.080000
50
-180.000000
0
CIRCLE
8
0
10
0.075000
20
0.037000
40
0.025000
0
INSERT
8
0
2
RPAD
10
-0.025000
20
0.037000
41
0.080000
42
0.080000
50
-180.000000
0
CIRCLE
8
0
10
-0.025000
20
0.037000
40
0.025000
0
INSERT
8
0
2
RPAD
10
-0.125000
20
0.037000
41
0.080000
42
0.080000
50
-180.000000
0
CIRCLE
8
0
10
-0.125000
20
0.037000
40
0.025000
0
INSERT
8
0
2
RPAD
10
-0.225000
20
0.037000
41
0.080000
42
0.080000
50
-180.000000
0
CIRCLE
8
0
10
-0.225000
20
0.037000
40
0.025000
0
INSERT
8
0
2
RPAD
10
-0.325000
20
0.037000
41
0.080000
42
0.080000
50
-180.000000
0
CIRCLE
8
0
10
-0.325000
20
0.037000
40
0.025000
0
INSERT
8
0
2
EPAD
10
0.725000
20
0.487000
41
0.080000
42
0.080000
0
CIRCLE
8
0
10
0.725000
20
0.487000
40
0.025000
0
INSERT
8
0
2
EPAD
10
0.825000
20
0.487000
41
0.080000
42
0.080000
0
CIRCLE
8
0
10
0.825000
20
0.487000
40
0.025000
0
INSERT
8
0
2
EPAD
10
0.375000
20
0.187000
41
0.080000
42
0.080000
0
CIRCLE
8
0
10
0.375000
20
0.187000
40
0.025000
0
INSERT
8
0
2
EPAD
10
0.275000
20
0.187000
41
0.080000
42
0.080000
0
CIRCLE
8
0
10
0.275000
20
0.187000
40
0.025000
0
INSERT
8
0
2
EPAD
10
0.500000
20
0.187000
41
0.080000
42
0.080000
0
CIRCLE
8
0
10
0.500000
20
0.187000
40
0.010000
0
INSERT
8
0
2
EPAD
10
0.500000
20
0.562000
41
0.080000
42
0.080000
0
CIRCLE
8
0
10
0.500000
20
0.562000
40
0.010000
0
INSERT
8
0
2
EPAD
10
0.600000
20
0.662000
41
0.080000
42
0.080000
0
CIRCLE
8
0
10
0.600000
20
0.662000
40
0.010000
0
INSERT
8
0
2
EPAD
10
0.600000
20
0.037000
41
0.080000
42
0.080000
0
CIRCLE
8
0
10
0.600000
20
0.037000
40
0.010000
0
INSERT
8
0
2
RPAD
10
0.975000
20
-0.812000
41
0.080000
42
0.080000
50
180.000000
0
CIRCLE
8
0
10
0.975000
20
-0.812000
40
0.025000
0
INSERT
8
0
2
RPAD
10
0.875000
20
-0.812000
41
0.080000
42
0.080000
50
180.000000
0
CIRCLE
8
0
10
0.875000
20
-0.812000
40
0.025000
0
INSERT
8
0
2
RPAD
10
0.775000
20
-0.812000
41
0.080000
42
0.080000
50
180.000000
0
CIRCLE
8
0
10
0.775000
20
-0.812000
40
0.025000
0
INSERT
8
0
2
RPAD
10
0.675000
20
-0.812000
41
0.080000
42
0.080000
50
180.000000
0
CIRCLE
8
0
10
0.675000
20
-0.812000
40
0.025000
0
INSERT
8
0
2
RPAD
10
0.575000
20
-0.812000
41
0.080000
42
0.080000
50
180.000000
0
CIRCLE
8
0
10
0.575000
20
-0.812000
40
0.025000
0
INSERT
8
0
2
RPAD
10
0.475000
20
-0.812000
41
0.080000
42
0.080000
50
180.000000
0
CIRCLE
8
0
10
0.475000
20
-0.812000
40
0.025000
0
INSERT
8
0
2
RPAD
10
0.375000
20
-0.812000
41
0.080000
42
0.080000
50
180.000000
0
CIRCLE
8
0
10
0.375000
20
-0.812000
40
0.025000
0
INSERT
8
0
2
RPAD
10
0.275000
20
-0.812000
41
0.080000
42
0.080000
50
180.000000
0
CIRCLE
8
0
10
0.275000
20
-0.812000
40
0.025000
0
INSERT
8
0
2
RPAD
10
0.275000
20
-0.212000
41
0.080000
42
0.080000
50
0.000000
0
CIRCLE
8
0
10
0.275000
20
-0.212000
40
0.025000
0
INSERT
8
0
2
RPAD
10
0.375000
20
-0.212000
41
0.080000
42
0.080000
50
0.000000
0
CIRCLE
8
0
10
0.375000
20
-0.212000
40
0.025000
0
INSERT
8
0
2
RPAD
10
0.475000
20
-0.212000
41
0.080000
42
0.080000
50
0.000000
0
CIRCLE
8
0
10
0.475000
20
-0.212000
40
0.025000
0
INSERT
8
0
2
RPAD
10
0.575000
20
-0.212000
41
0.080000
42
0.080000
50
0.000000
0
CIRCLE
8
0
10
0.575000
20
-0.212000
40
0.025000
0
INSERT
8
0
2
RPAD
10
0.675000
20
-0.212000
41
0.080000
42
0.080000
50
0.000000
0
CIRCLE
8
0
10
0.675000
20
-0.212000
40
0.025000
0
INSERT
8
0
2
RPAD
10
0.775000
20
-0.212000
41
0.080000
42
0.080000
50
0.000000
0
CIRCLE
8
0
10
0.775000
20
-0.212000
40
0.025000
0
INSERT
8
0
2
RPAD
10
0.875000
20
-0.212000
41
0.080000
42
0.080000
50
0.000000
0
CIRCLE
8
0
10
0.875000
20
-0.212000
40
0.025000
0
INSERT
8
0
2
RPAD
10
0.975000
20
-0.212000
41
0.080000
42
0.080000
50
0.000000
0
CIRCLE
8
0
10
0.975000
20
-0.212000
40
0.025000
0
INSERT
8
0
2
EPAD
10
0.275000
20
-0.362000
41
0.080000
42
0.080000
0
CIRCLE
8
0
10
0.275000
20
-0.362000
40
0.025000
0
INSERT
8
0
2
EPAD
10
0.375000
20
-0.362000
41
0.080000
42
0.080000
0
CIRCLE
8
0
10
0.375000
20
-0.362000
40
0.025000
0
INSERT
8
0
2
EPAD
10
0.025000
20
-0.137000
41
0.080000
42
0.080000
0
CIRCLE
8
0
10
0.025000
20
-0.137000
40
0.010000
0
INSERT
8
0
2
EPAD
10
0.025000
20
-0.887000
41
0.080000
42
0.080000
0
CIRCLE
8
0
10
0.025000
20
-0.887000
40
0.010000
0
INSERT
8
0
2
EPAD
10
0.925000
20
-0.087000
41
0.080000
42
0.080000
0
CIRCLE
8
0
10
0.925000
20
-0.087000
40
0.010000
0
INSERT
8
0
2
EPAD
10
1.300000
20
-0.087000
41
0.080000
42
0.080000
0
CIRCLE
8
0
10
1.300000
20
-0.087000
40
0.010000
0
INSERT
8
0
2
EPAD
10
2.250000
20
-0.312000
41
0.080000
42
0.080000
0
CIRCLE
8
0
10
2.250000
20
-0.312000
40
0.010000
0
INSERT
8
0
2
EPAD
10
1.100000
20
-0.312000
41
0.080000
42
0.080000
0
CIRCLE
8
0
10
1.100000
20
-0.312000
40
0.010000
0
INSERT
8
0
2
EPAD
10
1.650000
20
-1.487000
41
0.090000
42
0.090000
0
CIRCLE
8
0
10
1.650000
20
-1.487000
40
0.025000
0
INSERT
8
0
2
EPAD
10
1.650000
20
-0.587000
41
0.090000
42
0.090000
0
CIRCLE
8
0
10
1.650000
20
-0.587000
40
0.025000
0
INSERT
8
0
2
EPAD
10
1.325000
20
0.537000
41
0.080000
42
0.080000
0
CIRCLE
8
0
10
1.325000
20
0.537000
40
0.010000
0
INSERT
8
0
2
EPAD
10
1.775000
20
0.537000
41
0.080000
42
0.080000
0
CIRCLE
8
0
10
1.775000
20
0.537000
40
0.010000
0
INSERT
8
0
2
EPAD
10
2.250000
20
-0.187000
41
0.080000
42
0.080000
0
CIRCLE
8
0
10
2.250000
20
-0.187000
40
0.010000
0
INSERT
8
0
2
EPAD
10
1.400000
20
-0.187000
41
0.080000
42
0.080000
0
CIRCLE
8
0
10
1.400000
20
-0.187000
40
0.010000
0
INSERT
8
0
2
EPAD
10
1.425000
20
0.762000
41
0.080000
42
0.080000
0
CIRCLE
8
0
10
1.425000
20
0.762000
40
0.010000
0
INSERT
8
0
2
EPAD
10
1.900000
20
0.762000
41
0.080000
42
0.080000
0
CIRCLE
8
0
10
1.900000
20
0.762000
40
0.010000
0
INSERT
8
0
2
RPAD
10
1.525000
20
1.587000
41
0.080000
42
0.080000
50
0.000000
0
CIRCLE
8
0
10
1.525000
20
1.587000
40
0.025000
0
INSERT
8
0
2
RPAD
10
1.625000
20
1.587000
41
0.080000
42
0.080000
50
0.000000
0
CIRCLE
8
0
10
1.625000
20
1.587000
40
0.025000
0
INSERT
8
0
2
EPAD
10
2.100000
20
1.862000
41
0.080000
42
0.080000
0
CIRCLE
8
0
10
2.100000
20
1.862000
40
0.010000
0
INSERT
8
0
2
EPAD
10
-2.650000
20
1.862000
41
0.080000
42
0.080000
0
CIRCLE
8
0
10
-2.650000
20
1.862000
40
0.010000
0
INSERT
8
0
2
RPAD
10
-2.700000
20
1.987000
41
0.080000
42
0.080000
50
0.000000
0
CIRCLE
8
0
10
-2.700000
20
1.987000
40
0.025000
0
INSERT
8
0
2
RPAD
10
-2.600000
20
1.987000
41
0.080000
42
0.080000
50
0.000000
0
CIRCLE
8
0
10
-2.600000
20
1.987000
40
0.025000
0
INSERT
8
0
2
RPAD
10
-2.500000
20
1.987000
41
0.080000
42
0.080000
50
0.000000
0
CIRCLE
8
0
10
-2.500000
20
1.987000
40
0.025000
0
INSERT
8
0
2
RPAD
10
-2.400000
20
1.987000
41
0.080000
42
0.080000
50
0.000000
0
CIRCLE
8
0
10
-2.400000
20
1.987000
40
0.025000
0
INSERT
8
0
2
RPAD
10
-2.300000
20
1.987000
41
0.080000
42
0.080000
50
0.000000
0
CIRCLE
8
0
10
-2.300000
20
1.987000
40
0.025000
0
INSERT
8
0
2
RPAD
10
-2.200000
20
1.987000
41
0.080000
42
0.080000
50
0.000000
0
CIRCLE
8
0
10
-2.200000
20
1.987000
40
0.025000
0
INSERT
8
0
2
RPAD
10
-2.100000
20
1.987000
41
0.080000
42
0.080000
50
0.000000
0
CIRCLE
8
0
10
-2.100000
20
1.987000
40
0.025000
0
INSERT
8
0
2
RPAD
10
-2.000000
20
1.987000
41
0.080000
42
0.080000
50
0.000000
0
CIRCLE
8
0
10
-2.000000
20
1.987000
40
0.025000
0
INSERT
8
0
2
RPAD
10
-1.900000
20
1.987000
41
0.080000
42
0.080000
50
0.000000
0
CIRCLE
8
0
10
-1.900000
20
1.987000
40
0.025000
0
INSERT
8
0
2
RPAD
10
-1.800000
20
1.987000
41
0.080000
42
0.080000
50
0.000000
0
CIRCLE
8
0
10
-1.800000
20
1.987000
40
0.025000
0
INSERT
8
0
2
RPAD
10
-1.700000
20
1.987000
41
0.080000
42
0.080000
50
0.000000
0
CIRCLE
8
0
10
-1.700000
20
1.987000
40
0.025000
0
INSERT
8
0
2
RPAD
10
-1.600000
20
1.987000
41
0.080000
42
0.080000
50
0.000000
0
CIRCLE
8
0
10
-1.600000
20
1.987000
40
0.025000
0
INSERT
8
0
2
RPAD
10
-1.500000
20
1.987000
41
0.080000
42
0.080000
50
0.000000
0
CIRCLE
8
0
10
-1.500000
20
1.987000
40
0.025000
0
INSERT
8
0
2
RPAD
10
-1.400000
20
1.987000
41
0.080000
42
0.080000
50
0.000000
0
CIRCLE
8
0
10
-1.400000
20
1.987000
40
0.025000
0
INSERT
8
0
2
RPAD
10
-2.700000
20
1.312000
41
0.080000
42
0.080000
50
0.000000
0
CIRCLE
8
0
10
-2.700000
20
1.312000
40
0.025000
0
INSERT
8
0
2
RPAD
10
-2.600000
20
1.312000
41
0.080000
42
0.080000
50
0.000000
0
CIRCLE
8
0
10
-2.600000
20
1.312000
40
0.025000
0
INSERT
8
0
2
RPAD
10
-2.500000
20
1.312000
41
0.080000
42
0.080000
50
0.000000
0
CIRCLE
8
0
10
-2.500000
20
1.312000
40
0.025000
0
INSERT
8
0
2
RPAD
10
-2.400000
20
1.312000
41
0.080000
42
0.080000
50
0.000000
0
CIRCLE
8
0
10
-2.400000
20
1.312000
40
0.025000
0
INSERT
8
0
2
RPAD
10
-2.300000
20
1.312000
41
0.080000
42
0.080000
50
0.000000
0
CIRCLE
8
0
10
-2.300000
20
1.312000
40
0.025000
0
INSERT
8
0
2
RPAD
10
-2.200000
20
1.312000
41
0.080000
42
0.080000
50
0.000000
0
CIRCLE
8
0
10
-2.200000
20
1.312000
40
0.025000
0
INSERT
8
0
2
RPAD
10
-2.100000
20
1.312000
41
0.080000
42
0.080000
50
0.000000
0
CIRCLE
8
0
10
-2.100000
20
1.312000
40
0.025000
0
INSERT
8
0
2
RPAD
10
-2.000000
20
1.312000
41
0.080000
42
0.080000
50
0.000000
0
CIRCLE
8
0
10
-2.000000
20
1.312000
40
0.025000
0
INSERT
8
0
2
RPAD
10
-1.900000
20
1.312000
41
0.080000
42
0.080000
50
0.000000
0
CIRCLE
8
0
10
-1.900000
20
1.312000
40
0.025000
0
INSERT
8
0
2
RPAD
10
-1.800000
20
1.312000
41
0.080000
42
0.080000
50
0.000000
0
CIRCLE
8
0
10
-1.800000
20
1.312000
40
0.025000
0
INSERT
8
0
2
RPAD
10
-1.700000
20
1.312000
41
0.080000
42
0.080000
50
0.000000
0
CIRCLE
8
0
10
-1.700000
20
1.312000
40
0.025000
0
INSERT
8
0
2
RPAD
10
-1.600000
20
1.312000
41
0.080000
42
0.080000
50
0.000000
0
CIRCLE
8
0
10
-1.600000
20
1.312000
40
0.025000
0
INSERT
8
0
2
RPAD
10
-1.500000
20
1.312000
41
0.080000
42
0.080000
50
0.000000
0
CIRCLE
8
0
10
-1.500000
20
1.312000
40
0.025000
0
INSERT
8
0
2
RPAD
10
-1.600000
20
0.362000
41
0.080000
42
0.080000
50
0.000000
0
CIRCLE
8
0
10
-1.600000
20
0.362000
40
0.025000
0
INSERT
8
0
2
RPAD
10
-1.500000
20
0.362000
41
0.080000
42
0.080000
50
0.000000
0
CIRCLE
8
0
10
-1.500000
20
0.362000
40
0.025000
0
INSERT
8
0
2
RPAD
10
-1.400000
20
0.362000
41
0.080000
42
0.080000
50
0.000000
0
CIRCLE
8
0
10
-1.400000
20
0.362000
40
0.025000
0
INSERT
8
0
2
RPAD
10
-1.300000
20
0.362000
41
0.080000
42
0.080000
50
0.000000
0
CIRCLE
8
0
10
-1.300000
20
0.362000
40
0.025000
0
INSERT
8
0
2
RPAD
10
-1.200000
20
0.362000
41
0.080000
42
0.080000
50
0.000000
0
CIRCLE
8
0
10
-1.200000
20
0.362000
40
0.025000
0
INSERT
8
0
2
RPAD
10
-1.100000
20
0.362000
41
0.080000
42
0.080000
50
0.000000
0
CIRCLE
8
0
10
-1.100000
20
0.362000
40
0.025000
0
INSERT
8
0
2
EPAD
10
-2.125000
20
-0.562000
41
0.080000
42
0.080000
0
CIRCLE
8
0
10
-2.125000
20
-0.562000
40
0.010000
0
INSERT
8
0
2
EPAD
10
-1.500000
20
-0.562000
41
0.080000
42
0.080000
0
CIRCLE
8
0
10
-1.500000
20
-0.562000
40
0.010000
0
POLYLINE
8
0
66
1
40
0.008000
41
0.008000
0
VERTEX
8
0
10
-3.000000
20
-1.937000
0
VERTEX
8
0
10
3.000000
20
-1.937000
0
VERTEX
8
0
10
3.000000
20
2.062000
0
VERTEX
8
0
10
-3.000000
20
2.062000
0
VERTEX
8
0
10
-3.000000
20
-1.937000
0
SEQEND
8
0
0
ENDSEC
0
EOF

