  0
SECTION
  2
HEADER
  9
$ACADVER
  1
AC1015
  9
$ACADMAINTVER
 70
     6
  9
$DWGCODEPAGE
  3
ANSI_1252
  9
$INSBASE
 10
0.0
 20
0.0
 30
0.0
  9
$EXTMIN
 10
0.0
 20
0.0
 30
0.0
  9
$EXTMAX
 10
420.0
 20
297.0
 30
0.0
  9
$LIMMIN
 10
0.0
 20
0.0
  9
$LIMMAX
 10
420.0
 20
297.0
  9
$ORTHOMODE
 70
     0
  9
$REGENMODE
 70
     1
  9
$FILLMODE
 70
     1
  9
$QTEXTMODE
 70
     0
  9
$MIRRTEXT
 70
     1
  9
$LTSCALE
 40
1.0
  9
$ATTMODE
 70
     1
  9
$TEXTSIZE
 40
2.5
  9
$TRACEWID
 40
1.0
  9
$TEXTSTYLE
  7
Standard
  9
$CLAYER
  8
0
  9
$CELTYPE
  6
ByLayer
  9
$CECOLOR
 62
   256
  9
$CELTSCALE
 40
1.0
  9
$DISPSILH
 70
     0
  9
$DIMSCALE
 40
1.0
  9
$DIMASZ
 40
2.5
  9
$DIMEXO
 40
0.625
  9
$DIMDLI
 40
3.75
  9
$DIMRND
 40
0.0
  9
$DIMDLE
 40
0.0
  9
$DIMEXE
 40
1.25
  9
$DIMTP
 40
0.0
  9
$DIMTM
 40
0.0
  9
$DIMTXT
 40
2.5
  9
$DIMCEN
 40
2.5
  9
$DIMTSZ
 40
0.0
  9
$DIMTOL
 70
     0
  9
$DIMLIM
 70
     0
  9
$DIMTIH
 70
     0
  9
$DIMTOH
 70
     0
  9
$DIMSE1
 70
     0
  9
$DIMSE2
 70
     0
  9
$DIMTAD
 70
     1
  9
$DIMZIN
 70
     8
  9
$DIMBLK
  1

  9
$DIMASO
 70
     1
  9
$DIMSHO
 70
     1
  9
$DIMPOST
  1

  9
$DIMAPOST
  1

  9
$DIMALT
 70
     0
  9
$DIMALTD
 70
     3
  9
$DIMALTF
 40
0.0393700787
  9
$DIMLFAC
 40
1.0
  9
$DIMTOFL
 70
     1
  9
$DIMTVP
 40
0.0
  9
$DIMTIX
 70
     0
  9
$DIMSOXD
 70
     0
  9
$DIMSAH
 70
     0
  9
$DIMBLK1
  1

  9
$DIMBLK2
  1

  9
$DIMSTYLE
  2
ISO-25
  9
$DIMCLRD
 70
     0
  9
$DIMCLRE
 70
     0
  9
$DIMCLRT
 70
     0
  9
$DIMTFAC
 40
1.0
  9
$DIMGAP
 40
0.625
  9
$DIMJUST
 70
     0
  9
$DIMSD1
 70
     0
  9
$DIMSD2
 70
     0
  9
$DIMTOLJ
 70
     0
  9
$DIMTZIN
 70
     8
  9
$DIMALTZ
 70
     0
  9
$DIMALTTZ
 70
     0
  9
$DIMUPT
 70
     0
  9
$DIMDEC
 70
     2
  9
$DIMTDEC
 70
     2
  9
$DIMALTU
 70
     2
  9
$DIMALTTD
 70
     3
  9
$DIMTXSTY
  7
Standard
  9
$DIMAUNIT
 70
     0
  9
$DIMADEC
 70
     0
  9
$DIMALTRND
 40
0.0
  9
$DIMAZIN
 70
     0
  9
$DIMDSEP
 70
    44
  9
$DIMATFIT
 70
     3
  9
$DIMFRAC
 70
     0
  9
$DIMLDRBLK
  1

  9
$DIMLUNIT
 70
     2
  9
$DIMLWD
 70
    -2
  9
$DIMLWE
 70
    -2
  9
$DIMTMOVE
 70
     0
  9
$LUNITS
 70
     2
  9
$LUPREC
 70
     4
  9
$SKETCHINC
 40
1.0
  9
$FILLETRAD
 40
10.0
  9
$AUNITS
 70
     0
  9
$AUPREC
 70
     0
  9
$MENU
  1
.
  9
$ELEVATION
 40
0.0
  9
$PELEVATION
 40
0.0
  9
$THICKNESS
 40
0.0
  9
$LIMCHECK
 70
     0
  9
$CHAMFERA
 40
10.0
  9
$CHAMFERB
 40
10.0
  9
$CHAMFERC
 40
20.0
  9
$CHAMFERD
 40
0.0
  9
$SKPOLY
 70
     0
  9
$TDCREATE
 40
2455065.558829537
  9
$TDUCREATE
 40
2455065.51716287
  9
$TDUPDATE
 40
2455065.558829549
  9
$TDUUPDATE
 40
2455065.517162882
  9
$TDINDWG
 40
0.0000000116
  9
$TDUSRTIMER
 40
0.0000000116
  9
$USRTIMER
 70
     1
  9
$ANGBASE
 50
0.0
  9
$ANGDIR
 70
     0
  9
$PDMODE
 70
     0
  9
$PDSIZE
 40
0.0
  9
$PLINEWID
 40
0.0
  9
$SPLFRAME
 70
     0
  9
$SPLINETYPE
 70
     6
  9
$SPLINESEGS
 70
     8
  9
$HANDSEED
  5
A6
  9
$SURFTAB1
 70
     6
  9
$SURFTAB2
 70
     6
  9
$SURFTYPE
 70
     6
  9
$SURFU
 70
     6
  9
$SURFV
 70
     6
  9
$UCSBASE
  2

  9
$UCSNAME
  2

  9
$UCSORG
 10
0.0
 20
0.0
 30
0.0
  9
$UCSXDIR
 10
1.0
 20
0.0
 30
0.0
  9
$UCSYDIR
 10
0.0
 20
1.0
 30
0.0
  9
$UCSORTHOREF
  2

  9
$UCSORTHOVIEW
 70
     0
  9
$UCSORGTOP
 10
0.0
 20
0.0
 30
0.0
  9
$UCSORGBOTTOM
 10
0.0
 20
0.0
 30
0.0
  9
$UCSORGLEFT
 10
0.0
 20
0.0
 30
0.0
  9
$UCSORGRIGHT
 10
0.0
 20
0.0
 30
0.0
  9
$UCSORGFRONT
 10
0.0
 20
0.0
 30
0.0
  9
$UCSORGBACK
 10
0.0
 20
0.0
 30
0.0
  9
$PUCSBASE
  2

  9
$PUCSNAME
  2

  9
$PUCSORG
 10
0.0
 20
0.0
 30
0.0
  9
$PUCSXDIR
 10
1.0
 20
0.0
 30
0.0
  9
$PUCSYDIR
 10
0.0
 20
1.0
 30
0.0
  9
$PUCSORTHOREF
  2

  9
$PUCSORTHOVIEW
 70
     0
  9
$PUCSORGTOP
 10
0.0
 20
0.0
 30
0.0
  9
$PUCSORGBOTTOM
 10
0.0
 20
0.0
 30
0.0
  9
$PUCSORGLEFT
 10
0.0
 20
0.0
 30
0.0
  9
$PUCSORGRIGHT
 10
0.0
 20
0.0
 30
0.0
  9
$PUCSORGFRONT
 10
0.0
 20
0.0
 30
0.0
  9
$PUCSORGBACK
 10
0.0
 20
0.0
 30
0.0
  9
$USERI1
 70
     0
  9
$USERI2
 70
     0
  9
$USERI3
 70
     0
  9
$USERI4
 70
     0
  9
$USERI5
 70
     0
  9
$USERR1
 40
0.0
  9
$USERR2
 40
0.0
  9
$USERR3
 40
0.0
  9
$USERR4
 40
0.0
  9
$USERR5
 40
0.0
  9
$WORLDVIEW
 70
     1
  9
$SHADEDGE
 70
     3
  9
$SHADEDIF
 70
    70
  9
$TILEMODE
 70
     1
  9
$MAXACTVP
 70
    64
  9
$PINSBASE
 10
0.0
 20
0.0
 30
0.0
  9
$PLIMCHECK
 70
     0
  9
$PEXTMIN
 10
0.0
 20
0.0
 30
0.0
  9
$PEXTMAX
 10
420.0
 20
297.0
 30
0.0
  9
$PLIMMIN
 10
0.0
 20
0.0
  9
$PLIMMAX
 10
420.0
 20
297.0
  9
$UNITMODE
 70
     0
  9
$VISRETAIN
 70
     1
  9
$PLINEGEN
 70
     0
  9
$PSLTSCALE
 70
     1
  9
$TREEDEPTH
 70
  3020
  9
$CMLSTYLE
  2
Standard
  9
$CMLJUST
 70
     0
  9
$CMLSCALE
 40
20.0
  9
$PROXYGRAPHICS
 70
     1
  9
$MEASUREMENT
 70
     1
  9
$CELWEIGHT
370
    -1
  9
$ENDCAPS
280
     0
  9
$JOINSTYLE
280
     0
  9
$LWDISPLAY
290
     0
  9
$INSUNITS
 70
     4
  9
$HYPERLINKBASE
  1

  9
$STYLESHEET
  1

  9
$XEDIT
290
     1
  9
$CEPSNTYPE
380
     0
  9
$PSTYLEMODE
290
     1
  9
$FINGERPRINTGUID
  2
{79ADEDFF-84DA-4AA2-8694-362116FECB06}
  9
$VERSIONGUID
  2
{FAEB1C32-E019-11D5-929B-00C0DF256EC4}
  9
$EXTNAMES
290
     1
  9
$PSVPSCALE
 40
0.0
  9
$OLESTARTUP
290
     0
  0
ENDSEC
  0
SECTION
  2
CLASSES
  0
CLASS
  1
ACDBDICTIONARYWDFLT
  2
AcDbDictionaryWithDefault
  3
ObjectDBX Classes
 90
        0
280
     0
281
     0
  0
CLASS
  1
ACDBPLACEHOLDER
  2
AcDbPlaceHolder
  3
ObjectDBX Classes
 90
        0
280
     0
281
     0
  0
CLASS
  1
LAYOUT
  2
AcDbLayout
  3
ObjectDBX Classes
 90
        0
280
     0
281
     0
  0
ENDSEC
  0
SECTION
  2
TABLES
  0
TABLE
  2
VPORT
  5
8
330
0
100
AcDbSymbolTable
 70
     1
  0
VPORT
  5
29
330
8
100
AcDbSymbolTableRecord
100
AcDbViewportTableRecord
  2
*Active
 70
     0
 10
0.0
 20
0.0
 11
1.0
 21
1.0
 12
344.1869158879
 22
148.5
 13
0.0
 23
0.0
 14
10.0
 24
10.0
 15
10.0
 25
10.0
 16
0.0
 26
0.0
 36
1.0
 17
0.0
 27
0.0
 37
0.0
 40
297.0
 41
1.9729729729
 42
50.0
 43
0.0
 44
0.0
 50
0.0
 51
0.0
 71
     0
 72
   100
 73
     1
 74
     3
 75
     0
 76
     0
 77
     0
 78
     0
281
     0
 65
     1
110
0.0
120
0.0
130
0.0
111
1.0
121
0.0
131
0.0
112
0.0
122
1.0
132
0.0
 79
     0
146
0.0
  0
ENDTAB
  0
TABLE
  2
LTYPE
  5
5
330
0
100
AcDbSymbolTable
 70
     1
  0
LTYPE
  5
14
330
5
100
AcDbSymbolTableRecord
100
AcDbLinetypeTableRecord
  2
ByBlock
 70
     0
  3

 72
    65
 73
     0
 40
0.0
  0
LTYPE
  5
15
330
5
100
AcDbSymbolTableRecord
100
AcDbLinetypeTableRecord
  2
ByLayer
 70
     0
  3

 72
    65
 73
     0
 40
0.0
  0
LTYPE
  5
16
330
5
100
AcDbSymbolTableRecord
100
AcDbLinetypeTableRecord
  2
Continuous
 70
     0
  3
Solid line
 72
    65
 73
     0
 40
0.0
  0
ENDTAB
  0
TABLE
  2
LAYER
  5
2
330
0
100
AcDbSymbolTable
 70
     3
  0
LAYER
  5
10
330
2
100
AcDbSymbolTableRecord
100
AcDbLayerTableRecord
  2
0
 70
     0
 62
     7
  6
Continuous
370
    -3
390
F
  0
LAYER
  5
2A
330
2
100
AcDbSymbolTableRecord
100
AcDbLayerTableRecord
  2
Default
 70
     0
 62
     7
  6
Continuous
370
    -3
390
F
  0
LAYER
  5
2D
330
2
100
AcDbSymbolTableRecord
100
AcDbLayerTableRecord
  2
Y-CHASSIS
 70
     0
 62
     7
  6
Continuous
370
    -3
390
F
  0
ENDTAB
  0
TABLE
  2
STYLE
  5
3
330
0
100
AcDbSymbolTable
 70
     1
  0
STYLE
  5
11
330
3
100
AcDbSymbolTableRecord
100
AcDbTextStyleTableRecord
  2
Standard
 70
     0
 40
0.0
 41
1.0
 50
0.0
 71
     0
 42
2.5
  3
txt
  4

  0
ENDTAB
  0
TABLE
  2
VIEW
  5
6
330
0
100
AcDbSymbolTable
 70
     0
  0
ENDTAB
  0
TABLE
  2
UCS
  5
7
330
0
100
AcDbSymbolTable
 70
     0
  0
ENDTAB
  0
TABLE
  2
APPID
  5
9
330
0
100
AcDbSymbolTable
 70
     1
  0
APPID
  5
12
330
9
100
AcDbSymbolTableRecord
100
AcDbRegAppTableRecord
  2
ACAD
 70
     0
  0
ENDTAB
  0
TABLE
  2
DIMSTYLE
  5
A
330
0
100
AcDbSymbolTable
 70
     1
100
AcDbDimStyleTable
  0
DIMSTYLE
105
27
330
A
100
AcDbSymbolTableRecord
100
AcDbDimStyleTableRecord
  2
ISO-25
 70
     0
 41
2.5
 42
0.625
 43
3.75
 44
1.25
 73
     0
 74
     0
 77
     1
 78
     8
140
2.5
141
2.5
143
0.0393700787
147
0.625
171
     3
172
     1
271
     2
272
     2
274
     3
278
    44
283
     0
284
     8
340
11
  0
ENDTAB
  0
TABLE
  2
BLOCK_RECORD
  5
1
330
0
100
AcDbSymbolTable
 70
     2
  0
BLOCK_RECORD
  5
1F
330
1
100
AcDbSymbolTableRecord
100
AcDbBlockTableRecord
  2
*Model_Space
340
22
  0
BLOCK_RECORD
  5
1B
330
1
100
AcDbSymbolTableRecord
100
AcDbBlockTableRecord
  2
*Paper_Space
340
1E
  0
BLOCK_RECORD
  5
2B
330
1
100
AcDbSymbolTableRecord
100
AcDbBlockTableRecord
  2
SE
340
0
102
{BLKREFS
331
2C
102
}
1001
ACAD
1000
DesignCenter Data
1002
{
1070
     1
1070
     0
1002
}
  0
ENDTAB
  0
ENDSEC
  0
SECTION
  2
BLOCKS
  0
BLOCK
  5
20
330
1F
100
AcDbEntity
  8
0
100
AcDbBlockBegin
  2
*Model_Space
 70
     0
 71
     0
 10
0.0
 20
0.0
 30
0.0
  3
*Model_Space
  1

  0
ENDBLK
  5
21
330
1F
100
AcDbEntity
  8
0
100
AcDbBlockEnd
  0
BLOCK
  5
1C
330
1B
100
AcDbEntity
 67
     1
  8
0
100
AcDbBlockBegin
  2
*Paper_Space
 70
     0
 71
     0
 10
0.0
 20
0.0
 30
0.0
  3
*Paper_Space
  1

  0
ENDBLK
  5
1D
330
1B
100
AcDbEntity
 67
     1
  8
0
100
AcDbBlockEnd
  0
BLOCK
  5
A4
330
2B
100
AcDbEntity
  8
0
100
AcDbBlockBegin
  2
SE
 70
     0
 71
     0
 10
0.0
 20
0.0
 30
0.0
  3
SE
  1

  0
LINE
  5
2E
330
2B
100
AcDbEntity
  8
Y-CHASSIS
  6
Continuous
 62
     7
100
AcDbLine
 10
214.1789856109
 20
281.2752578009
 30
0.0
 11
214.1789856109
 21
269.7752578009
 31
0.0
  0
LINE
  5
2F
330
2B
100
AcDbEntity
  8
Y-CHASSIS
  6
Continuous
 62
     7
100
AcDbLine
 10
14.1789856109
 20
281.2752578009
 30
0.0
 11
45.1789856109
 21
281.2752578009
 31
0.0
  0
LINE
  5
30
330
2B
100
AcDbEntity
  8
Y-CHASSIS
  6
Continuous
 62
     7
100
AcDbLine
 10
14.1789856109
 20
145.2752578009
 30
0.0
 11
14.1789856109
 21
156.7752578009
 31
0.0
  0
LINE
  5
31
330
2B
100
AcDbEntity
  8
Y-CHASSIS
  6
Continuous
 62
     7
100
AcDbLine
 10
14.1789856109
 20
145.2752578009
 30
0.0
 11
45.1789856109
 21
145.2752578009
 31
0.0
  0
LINE
  5
32
330
2B
100
AcDbEntity
  8
Y-CHASSIS
  6
Continuous
 62
     7
100
AcDbLine
 10
214.1789856109
 20
233.7752578009
 30
0.0
 11
214.1789856109
 21
192.7752578009
 31
0.0
  0
LINE
  5
33
330
2B
100
AcDbEntity
  8
Y-CHASSIS
  6
Continuous
 62
     7
100
AcDbLine
 10
214.1789856109
 20
233.7752578009
 30
0.0
 11
175.9789856109
 21
233.7752578009
 31
0.0
  0
LINE
  5
34
330
2B
100
AcDbEntity
  8
Y-CHASSIS
  6
Continuous
 62
     7
100
AcDbLine
 10
175.9789856109
 20
269.7752578009
 30
0.0
 11
214.1789856109
 21
269.7752578009
 31
0.0
  0
ARC
  5
35
330
2B
100
AcDbEntity
  8
Y-CHASSIS
  6
Continuous
 62
     7
100
AcDbCircle
 10
175.9789856109
 20
264.7752578009
 30
0.0
 40
4.999999999999997
100
AcDbArc
 50
90.0
 51
180.0
  0
LINE
  5
36
330
2B
100
AcDbEntity
  8
Y-CHASSIS
  6
Continuous
 62
     7
100
AcDbLine
 10
170.9789856109
 20
238.7752578009
 30
0.0
 11
170.9789856109
 21
264.7752578009
 31
0.0
  0
ARC
  5
37
330
2B
100
AcDbEntity
  8
Y-CHASSIS
  6
Continuous
 62
     7
100
AcDbCircle
 10
175.9789856109
 20
238.7752578009
 30
0.0
 40
5.000000000000001
100
AcDbArc
 50
180.0
 51
270.0
  0
CIRCLE
  5
38
330
2B
100
AcDbEntity
  8
Y-CHASSIS
  6
Continuous
 62
     7
100
AcDbCircle
 10
186.3789856109
 20
275.2752578009
 30
0.0
 40
2.2
  0
CIRCLE
  5
39
330
2B
100
AcDbEntity
  8
Y-CHASSIS
  6
Continuous
 62
     7
100
AcDbCircle
 10
186.3789856109
 20
228.2752578009
 30
0.0
 40
2.2
  0
ARC
  5
3A
330
2B
100
AcDbEntity
  8
Y-CHASSIS
  6
Continuous
 62
     7
100
AcDbCircle
 10
208.1789856109
 20
228.2752578009
 30
0.0
 40
2.199999999999997
100
AcDbArc
 50
270.0
 51
90.0
  0
LINE
  5
3B
330
2B
100
AcDbEntity
  8
Y-CHASSIS
  6
Continuous
 62
     7
100
AcDbLine
 10
208.1789856109
 20
226.0752578009
 30
0.0
 11
206.1789856109
 21
226.0752578009
 31
0.0
  0
ARC
  5
3C
330
2B
100
AcDbEntity
  8
Y-CHASSIS
  6
Continuous
 62
     7
100
AcDbCircle
 10
206.1789856109
 20
228.2752578009
 30
0.0
 40
2.200000000000002
100
AcDbArc
 50
90.0
 51
270.0
  0
LINE
  5
3D
330
2B
100
AcDbEntity
  8
Y-CHASSIS
  6
Continuous
 62
     7
100
AcDbLine
 10
206.1789856109
 20
230.4752578009
 30
0.0
 11
208.1789856109
 21
230.4752578009
 31
0.0
  0
ARC
  5
3E
330
2B
100
AcDbEntity
  8
Y-CHASSIS
  6
Continuous
 62
     7
100
AcDbCircle
 10
208.1789856109
 20
275.2752578009
 30
0.0
 40
2.199999999999994
100
AcDbArc
 50
270.0
 51
90.0
  0
LINE
  5
3F
330
2B
100
AcDbEntity
  8
Y-CHASSIS
  6
Continuous
 62
     7
100
AcDbLine
 10
208.1789856109
 20
273.0752578009
 30
0.0
 11
206.1789856109
 21
273.0752578009
 31
0.0
  0
ARC
  5
40
330
2B
100
AcDbEntity
  8
Y-CHASSIS
  6
Continuous
 62
     7
100
AcDbCircle
 10
206.1789856109
 20
275.2752578009
 30
0.0
 40
2.200000000000001
100
AcDbArc
 50
90.0
 51
270.0
  0
LINE
  5
41
330
2B
100
AcDbEntity
  8
Y-CHASSIS
  6
Continuous
 62
     7
100
AcDbLine
 10
206.1789856109
 20
277.4752578009
 30
0.0
 11
208.1789856109
 21
277.4752578009
 31
0.0
  0
LINE
  5
42
330
2B
100
AcDbEntity
  8
Y-CHASSIS
  6
Continuous
 62
     7
100
AcDbLine
 10
183.1789856109
 20
281.2752578009
 30
0.0
 11
214.1789856109
 21
281.2752578009
 31
0.0
  0
LINE
  5
43
330
2B
100
AcDbEntity
  8
Y-CHASSIS
  6
Continuous
 62
     7
100
AcDbLine
 10
182.1789856109
 20
282.2752578009
 30
0.0
 11
182.1789856109
 21
283.2752578009
 31
0.0
  0
ARC
  5
44
330
2B
100
AcDbEntity
  8
Y-CHASSIS
  6
Continuous
 62
     7
100
AcDbCircle
 10
183.1789856109
 20
282.2752578009
 30
0.0
 40
1.000000000000001
100
AcDbArc
 50
180.0
 51
270.0
  0
LINE
  5
45
330
2B
100
AcDbEntity
  8
Y-CHASSIS
  6
Continuous
 62
     7
100
AcDbLine
 10
178.1789856109
 20
287.2752578009
 30
0.0
 11
156.1789856109
 21
287.2752578009
 31
0.0
  0
ARC
  5
46
330
2B
100
AcDbEntity
  8
Y-CHASSIS
  6
Continuous
 62
     7
100
AcDbCircle
 10
178.1789856109
 20
283.2752578009
 30
0.0
 40
4.000000000000004
100
AcDbArc
 50
0.0
 51
90.0
  0
LINE
  5
47
330
2B
100
AcDbEntity
  8
Y-CHASSIS
  6
Continuous
 62
     7
100
AcDbLine
 10
214.1789856109
 20
156.7752578009
 30
0.0
 11
214.1789856109
 21
145.2752578009
 31
0.0
  0
LINE
  5
48
330
2B
100
AcDbEntity
  8
Y-CHASSIS
  6
Continuous
 62
     7
100
AcDbLine
 10
214.1789856109
 20
156.7752578009
 30
0.0
 11
175.9789856109
 21
156.7752578009
 31
0.0
  0
LINE
  5
49
330
2B
100
AcDbEntity
  8
Y-CHASSIS
  6
Continuous
 62
     7
100
AcDbLine
 10
170.9789856109
 20
161.7752578009
 30
0.0
 11
170.9789856109
 21
187.7752578009
 31
0.0
  0
ARC
  5
4A
330
2B
100
AcDbEntity
  8
Y-CHASSIS
  6
Continuous
 62
     7
100
AcDbCircle
 10
175.9789856109
 20
161.7752578009
 30
0.0
 40
4.999999999999997
100
AcDbArc
 50
180.0
 51
270.0
  0
LINE
  5
4B
330
2B
100
AcDbEntity
  8
Y-CHASSIS
  6
Continuous
 62
     7
100
AcDbLine
 10
175.9789856109
 20
192.7752578009
 30
0.0
 11
214.1789856109
 21
192.7752578009
 31
0.0
  0
ARC
  5
4C
330
2B
100
AcDbEntity
  8
Y-CHASSIS
  6
Continuous
 62
     7
100
AcDbCircle
 10
175.9789856109
 20
187.7752578009
 30
0.0
 40
4.999999999999997
100
AcDbArc
 50
90.0
 51
180.0
  0
CIRCLE
  5
4D
330
2B
100
AcDbEntity
  8
Y-CHASSIS
  6
Continuous
 62
     7
100
AcDbCircle
 10
186.3789856109
 20
151.2752578009
 30
0.0
 40
2.2
  0
CIRCLE
  5
4E
330
2B
100
AcDbEntity
  8
Y-CHASSIS
  6
Continuous
 62
     7
100
AcDbCircle
 10
186.3789856109
 20
198.2752578009
 30
0.0
 40
2.2
  0
LINE
  5
4F
330
2B
100
AcDbEntity
  8
Y-CHASSIS
  6
Continuous
 62
     7
100
AcDbLine
 10
206.1789856109
 20
200.4752578009
 30
0.0
 11
208.1789856109
 21
200.4752578009
 31
0.0
  0
ARC
  5
50
330
2B
100
AcDbEntity
  8
Y-CHASSIS
  6
Continuous
 62
     7
100
AcDbCircle
 10
208.1789856109
 20
198.2752578009
 30
0.0
 40
2.200000000000001
100
AcDbArc
 50
270.0
 51
90.0
  0
LINE
  5
51
330
2B
100
AcDbEntity
  8
Y-CHASSIS
  6
Continuous
 62
     7
100
AcDbLine
 10
208.1789856109
 20
196.0752578009
 30
0.0
 11
206.1789856109
 21
196.0752578009
 31
0.0
  0
ARC
  5
52
330
2B
100
AcDbEntity
  8
Y-CHASSIS
  6
Continuous
 62
     7
100
AcDbCircle
 10
206.1789856109
 20
198.2752578009
 30
0.0
 40
2.199999999999997
100
AcDbArc
 50
90.0
 51
270.0
  0
LINE
  5
53
330
2B
100
AcDbEntity
  8
Y-CHASSIS
  6
Continuous
 62
     7
100
AcDbLine
 10
206.1789856109
 20
153.4752578009
 30
0.0
 11
208.1789856109
 21
153.4752578009
 31
0.0
  0
ARC
  5
54
330
2B
100
AcDbEntity
  8
Y-CHASSIS
  6
Continuous
 62
     7
100
AcDbCircle
 10
208.1789856109
 20
151.2752578009
 30
0.0
 40
2.200000000000001
100
AcDbArc
 50
270.0
 51
90.0
  0
LINE
  5
55
330
2B
100
AcDbEntity
  8
Y-CHASSIS
  6
Continuous
 62
     7
100
AcDbLine
 10
208.1789856109
 20
149.0752578009
 30
0.0
 11
206.1789856109
 21
149.0752578009
 31
0.0
  0
ARC
  5
56
330
2B
100
AcDbEntity
  8
Y-CHASSIS
  6
Continuous
 62
     7
100
AcDbCircle
 10
206.1789856109
 20
151.2752578009
 30
0.0
 40
2.199999999999994
100
AcDbArc
 50
90.0
 51
270.0
  0
LINE
  5
57
330
2B
100
AcDbEntity
  8
Y-CHASSIS
  6
Continuous
 62
     7
100
AcDbLine
 10
183.1789856109
 20
145.2752578009
 30
0.0
 11
214.1789856109
 21
145.2752578009
 31
0.0
  0
ARC
  5
58
330
2B
100
AcDbEntity
  8
Y-CHASSIS
  6
Continuous
 62
     7
100
AcDbCircle
 10
183.1789856109
 20
144.2752578009
 30
0.0
 40
1.000000000000001
100
AcDbArc
 50
90.0
 51
180.0
  0
LINE
  5
59
330
2B
100
AcDbEntity
  8
Y-CHASSIS
  6
Continuous
 62
     7
100
AcDbLine
 10
182.1789856109
 20
143.2752578009
 30
0.0
 11
182.1789856109
 21
144.2752578009
 31
0.0
  0
ARC
  5
5A
330
2B
100
AcDbEntity
  8
Y-CHASSIS
  6
Continuous
 62
     7
100
AcDbCircle
 10
178.1789856109
 20
143.2752578009
 30
0.0
 40
4.000000000000004
100
AcDbArc
 50
270.0
 51
360.0
  0
ARC
  5
5B
330
2B
100
AcDbEntity
  8
Y-CHASSIS
  6
Continuous
 62
     7
100
AcDbCircle
 10
19.0789856109
 20
275.275257801
 30
0.0
 40
2.200000000000001
100
AcDbArc
 50
90.0
 51
270.0
  0
LINE
  5
5C
330
2B
100
AcDbEntity
  8
Y-CHASSIS
  6
Continuous
 62
     7
100
AcDbLine
 10
19.0789856109
 20
277.475257801
 30
0.0
 11
21.0789856109
 21
277.475257801
 31
0.0
  0
ARC
  5
5D
330
2B
100
AcDbEntity
  8
Y-CHASSIS
  6
Continuous
 62
     7
100
AcDbCircle
 10
21.0789856109
 20
275.275257801
 30
0.0
 40
2.199999999999994
100
AcDbArc
 50
270.0
 51
90.0
  0
LINE
  5
5E
330
2B
100
AcDbEntity
  8
Y-CHASSIS
  6
Continuous
 62
     7
100
AcDbLine
 10
21.0789856109
 20
273.075257801
 30
0.0
 11
19.0789856109
 21
273.075257801
 31
0.0
  0
ARC
  5
5F
330
2B
100
AcDbEntity
  8
Y-CHASSIS
  6
Continuous
 62
     7
100
AcDbCircle
 10
42.0789856109
 20
275.275257801
 30
0.0
 40
2.200000000000001
100
AcDbArc
 50
90.0
 51
270.0
  0
LINE
  5
60
330
2B
100
AcDbEntity
  8
Y-CHASSIS
  6
Continuous
 62
     7
100
AcDbLine
 10
42.0789856109
 20
277.475257801
 30
0.0
 11
44.0789856109
 21
277.475257801
 31
0.0
  0
ARC
  5
61
330
2B
100
AcDbEntity
  8
Y-CHASSIS
  6
Continuous
 62
     7
100
AcDbCircle
 10
44.0789856109
 20
275.275257801
 30
0.0
 40
2.199999999999994
100
AcDbArc
 50
270.0
 51
90.0
  0
LINE
  5
62
330
2B
100
AcDbEntity
  8
Y-CHASSIS
  6
Continuous
 62
     7
100
AcDbLine
 10
44.0789856109
 20
273.075257801
 30
0.0
 11
42.0789856109
 21
273.075257801
 31
0.0
  0
ARC
  5
63
330
2B
100
AcDbEntity
  8
Y-CHASSIS
  6
Continuous
 62
     7
100
AcDbCircle
 10
42.0789856109
 20
249.275257801
 30
0.0
 40
2.200000000000001
100
AcDbArc
 50
90.0
 51
270.0
  0
LINE
  5
64
330
2B
100
AcDbEntity
  8
Y-CHASSIS
  6
Continuous
 62
     7
100
AcDbLine
 10
42.0789856109
 20
251.475257801
 30
0.0
 11
44.0789856109
 21
251.475257801
 31
0.0
  0
ARC
  5
65
330
2B
100
AcDbEntity
  8
Y-CHASSIS
  6
Continuous
 62
     7
100
AcDbCircle
 10
44.0789856109
 20
249.275257801
 30
0.0
 40
2.199999999999994
100
AcDbArc
 50
270.0
 51
90.0
  0
LINE
  5
66
330
2B
100
AcDbEntity
  8
Y-CHASSIS
  6
Continuous
 62
     7
100
AcDbLine
 10
44.0789856109
 20
247.075257801
 30
0.0
 11
42.0789856109
 21
247.075257801
 31
0.0
  0
ARC
  5
67
330
2B
100
AcDbEntity
  8
Y-CHASSIS
  6
Continuous
 62
     7
100
AcDbCircle
 10
19.0789856109
 20
249.275257801
 30
0.0
 40
2.200000000000001
100
AcDbArc
 50
90.0
 51
270.0
  0
LINE
  5
68
330
2B
100
AcDbEntity
  8
Y-CHASSIS
  6
Continuous
 62
     7
100
AcDbLine
 10
19.0789856109
 20
251.475257801
 30
0.0
 11
21.0789856109
 21
251.475257801
 31
0.0
  0
ARC
  5
69
330
2B
100
AcDbEntity
  8
Y-CHASSIS
  6
Continuous
 62
     7
100
AcDbCircle
 10
21.0789856109
 20
249.275257801
 30
0.0
 40
2.199999999999994
100
AcDbArc
 50
270.0
 51
90.0
  0
LINE
  5
6A
330
2B
100
AcDbEntity
  8
Y-CHASSIS
  6
Continuous
 62
     7
100
AcDbLine
 10
21.0789856109
 20
247.075257801
 30
0.0
 11
19.0789856109
 21
247.075257801
 31
0.0
  0
LINE
  5
6B
330
2B
100
AcDbEntity
  8
Y-CHASSIS
  6
Continuous
 62
     7
100
AcDbLine
 10
14.1789856109
 20
269.775257801
 30
0.0
 11
14.1789856109
 21
281.2752578009
 31
0.0
  0
LINE
  5
6C
330
2B
100
AcDbEntity
  8
Y-CHASSIS
  6
Continuous
 62
     7
100
AcDbLine
 10
51.7789856109
 20
254.775257801
 30
0.0
 11
14.1789856109
 21
254.775257801
 31
0.0
  0
LINE
  5
6D
330
2B
100
AcDbEntity
  8
Y-CHASSIS
  6
Continuous
 62
     7
100
AcDbLine
 10
51.7789856109
 20
269.775257801
 30
0.0
 11
14.1789856109
 21
269.775257801
 31
0.0
  0
ARC
  5
6E
330
2B
100
AcDbEntity
  8
Y-CHASSIS
  6
Continuous
 62
     7
100
AcDbCircle
 10
51.7789856109
 20
259.7752578009
 30
0.0
 40
4.999999999999997
100
AcDbArc
 50
270.0
 51
360.0
  0
LINE
  5
6F
330
2B
100
AcDbEntity
  8
Y-CHASSIS
  6
Continuous
 62
     7
100
AcDbLine
 10
56.7789856109
 20
259.7752578009
 30
0.0
 11
56.7789856109
 21
264.7752578009
 31
0.0
  0
ARC
  5
70
330
2B
100
AcDbEntity
  8
Y-CHASSIS
  6
Continuous
 62
     7
100
AcDbCircle
 10
51.7789856109
 20
264.7752578009
 30
0.0
 40
4.999999999999997
100
AcDbArc
 50
0.0
 51
90.0
  0
ARC
  5
71
330
2B
100
AcDbEntity
  8
Y-CHASSIS
  6
Continuous
 62
     7
100
AcDbCircle
 10
45.1789856109
 20
282.2752578009
 30
0.0
 40
1.000000000000001
100
AcDbArc
 50
270.0
 51
360.0
  0
LINE
  5
72
330
2B
100
AcDbEntity
  8
Y-CHASSIS
  6
Continuous
 62
     7
100
AcDbLine
 10
46.1789856109
 20
283.2752578009
 30
0.0
 11
46.1789856109
 21
282.2752578009
 31
0.0
  0
ARC
  5
73
330
2B
100
AcDbEntity
  8
Y-CHASSIS
  6
Continuous
 62
     7
100
AcDbCircle
 10
50.1789856109
 20
283.2752578009
 30
0.0
 40
4.000000000000004
100
AcDbArc
 50
90.0
 51
180.0
  0
LINE
  5
74
330
2B
100
AcDbEntity
  8
Y-CHASSIS
  6
Continuous
 62
     7
100
AcDbLine
 10
21.0789856109
 20
149.0752578009
 30
0.0
 11
19.0789856109
 21
149.0752578009
 31
0.0
  0
ARC
  5
75
330
2B
100
AcDbEntity
  8
Y-CHASSIS
  6
Continuous
 62
     7
100
AcDbCircle
 10
19.0789856109
 20
151.2752578009
 30
0.0
 40
2.199999999999994
100
AcDbArc
 50
90.0
 51
270.0
  0
LINE
  5
76
330
2B
100
AcDbEntity
  8
Y-CHASSIS
  6
Continuous
 62
     7
100
AcDbLine
 10
19.0789856109
 20
153.4752578009
 30
0.0
 11
21.0789856109
 21
153.4752578009
 31
0.0
  0
ARC
  5
77
330
2B
100
AcDbEntity
  8
Y-CHASSIS
  6
Continuous
 62
     7
100
AcDbCircle
 10
21.0789856109
 20
151.2752578009
 30
0.0
 40
2.200000000000001
100
AcDbArc
 50
270.0
 51
90.0
  0
LINE
  5
78
330
2B
100
AcDbEntity
  8
Y-CHASSIS
  6
Continuous
 62
     7
100
AcDbLine
 10
44.0789856109
 20
149.0752578009
 30
0.0
 11
42.0789856109
 21
149.0752578009
 31
0.0
  0
ARC
  5
79
330
2B
100
AcDbEntity
  8
Y-CHASSIS
  6
Continuous
 62
     7
100
AcDbCircle
 10
42.0789856109
 20
151.2752578009
 30
0.0
 40
2.199999999999994
100
AcDbArc
 50
90.0
 51
270.0
  0
LINE
  5
7A
330
2B
100
AcDbEntity
  8
Y-CHASSIS
  6
Continuous
 62
     7
100
AcDbLine
 10
42.0789856109
 20
153.4752578009
 30
0.0
 11
44.0789856109
 21
153.4752578009
 31
0.0
  0
ARC
  5
7B
330
2B
100
AcDbEntity
  8
Y-CHASSIS
  6
Continuous
 62
     7
100
AcDbCircle
 10
44.0789856109
 20
151.2752578009
 30
0.0
 40
2.200000000000001
100
AcDbArc
 50
270.0
 51
90.0
  0
LINE
  5
7C
330
2B
100
AcDbEntity
  8
Y-CHASSIS
  6
Continuous
 62
     7
100
AcDbLine
 10
44.0789856109
 20
175.0752578009
 30
0.0
 11
42.0789856109
 21
175.0752578009
 31
0.0
  0
ARC
  5
7D
330
2B
100
AcDbEntity
  8
Y-CHASSIS
  6
Continuous
 62
     7
100
AcDbCircle
 10
42.0789856109
 20
177.2752578009
 30
0.0
 40
2.199999999999994
100
AcDbArc
 50
90.0
 51
270.0
  0
LINE
  5
7E
330
2B
100
AcDbEntity
  8
Y-CHASSIS
  6
Continuous
 62
     7
100
AcDbLine
 10
42.0789856109
 20
179.4752578009
 30
0.0
 11
44.0789856109
 21
179.4752578009
 31
0.0
  0
ARC
  5
7F
330
2B
100
AcDbEntity
  8
Y-CHASSIS
  6
Continuous
 62
     7
100
AcDbCircle
 10
44.0789856109
 20
177.2752578009
 30
0.0
 40
2.200000000000001
100
AcDbArc
 50
270.0
 51
90.0
  0
LINE
  5
80
330
2B
100
AcDbEntity
  8
Y-CHASSIS
  6
Continuous
 62
     7
100
AcDbLine
 10
21.0789856109
 20
175.0752578009
 30
0.0
 11
19.0789856109
 21
175.0752578009
 31
0.0
  0
ARC
  5
81
330
2B
100
AcDbEntity
  8
Y-CHASSIS
  6
Continuous
 62
     7
100
AcDbCircle
 10
19.0789856109
 20
177.2752578009
 30
0.0
 40
2.199999999999994
100
AcDbArc
 50
90.0
 51
270.0
  0
LINE
  5
82
330
2B
100
AcDbEntity
  8
Y-CHASSIS
  6
Continuous
 62
     7
100
AcDbLine
 10
19.0789856109
 20
179.4752578009
 30
0.0
 11
21.0789856109
 21
179.4752578009
 31
0.0
  0
ARC
  5
83
330
2B
100
AcDbEntity
  8
Y-CHASSIS
  6
Continuous
 62
     7
100
AcDbCircle
 10
21.0789856109
 20
177.2752578009
 30
0.0
 40
2.200000000000001
100
AcDbArc
 50
270.0
 51
90.0
  0
LINE
  5
84
330
2B
100
AcDbEntity
  8
Y-CHASSIS
  6
Continuous
 62
     7
100
AcDbLine
 10
14.1789856109
 20
171.7752578009
 30
0.0
 11
14.1789856109
 21
254.775257801
 31
0.0
  0
LINE
  5
85
330
2B
100
AcDbEntity
  8
Y-CHASSIS
  6
Continuous
 62
     7
100
AcDbLine
 10
51.7789856109
 20
156.7752578009
 30
0.0
 11
14.1789856109
 21
156.7752578009
 31
0.0
  0
LINE
  5
86
330
2B
100
AcDbEntity
  8
Y-CHASSIS
  6
Continuous
 62
     7
100
AcDbLine
 10
51.7789856109
 20
171.7752578009
 30
0.0
 11
14.1789856109
 21
171.7752578009
 31
0.0
  0
ARC
  5
87
330
2B
100
AcDbEntity
  8
Y-CHASSIS
  6
Continuous
 62
     7
100
AcDbCircle
 10
51.7789856109
 20
161.7752578009
 30
0.0
 40
4.999999999999997
100
AcDbArc
 50
270.0
 51
360.0
  0
LINE
  5
88
330
2B
100
AcDbEntity
  8
Y-CHASSIS
  6
Continuous
 62
     7
100
AcDbLine
 10
56.7789856109
 20
161.7752578009
 30
0.0
 11
56.7789856109
 21
166.7752578009
 31
0.0
  0
ARC
  5
89
330
2B
100
AcDbEntity
  8
Y-CHASSIS
  6
Continuous
 62
     7
100
AcDbCircle
 10
51.7789856109
 20
166.7752578009
 30
0.0
 40
4.999999999999997
100
AcDbArc
 50
0.0
 51
90.0
  0
LINE
  5
8A
330
2B
100
AcDbEntity
  8
Y-CHASSIS
  6
Continuous
 62
     7
100
AcDbLine
 10
46.1789856109
 20
144.2752578009
 30
0.0
 11
46.1789856109
 21
143.2752578009
 31
0.0
  0
ARC
  5
8B
330
2B
100
AcDbEntity
  8
Y-CHASSIS
  6
Continuous
 62
     7
100
AcDbCircle
 10
45.1789856109
 20
144.2752578009
 30
0.0
 40
1.000000000000001
100
AcDbArc
 50
0.0
 51
90.0
  0
LINE
  5
8C
330
2B
100
AcDbEntity
  8
Y-CHASSIS
  6
Continuous
 62
     7
100
AcDbLine
 10
50.1789856109
 20
139.2752578009
 30
0.0
 11
72.1789856109
 21
139.2752578009
 31
0.0
  0
ARC
  5
8D
330
2B
100
AcDbEntity
  8
Y-CHASSIS
  6
Continuous
 62
     7
100
AcDbCircle
 10
50.1789856109
 20
143.2752578009
 30
0.0
 40
4.000000000000004
100
AcDbArc
 50
180.0
 51
270.0
  0
LINE
  5
8E
330
2B
100
AcDbEntity
  8
Y-CHASSIS
  6
Continuous
 62
     7
100
AcDbLine
 10
131.1789856109
 20
253.8303939641
 30
0.0
 11
97.1789856109
 21
253.8303939641
 31
0.0
  0
ARC
  5
8F
330
2B
100
AcDbEntity
  8
Y-CHASSIS
  6
Continuous
 62
     7
100
AcDbCircle
 10
131.1789856109
 20
258.8303939641
 30
0.0
 40
4.999999999999997
100
AcDbArc
 50
270.0
 51
360.0
  0
LINE
  5
90
330
2B
100
AcDbEntity
  8
Y-CHASSIS
  6
Continuous
 62
     7
100
AcDbLine
 10
92.1789856109
 20
258.8303939641
 30
0.0
 11
92.1789856109
 21
267.2752578009
 31
0.0
  0
ARC
  5
91
330
2B
100
AcDbEntity
  8
Y-CHASSIS
  6
Continuous
 62
     7
100
AcDbCircle
 10
97.1789856109
 20
258.8303939641
 30
0.0
 40
4.999999999999997
100
AcDbArc
 50
180.0
 51
270.0
  0
LINE
  5
92
330
2B
100
AcDbEntity
  8
Y-CHASSIS
  6
Continuous
 62
     7
100
AcDbLine
 10
136.1789856109
 20
267.2752578009
 30
0.0
 11
136.1789856109
 21
258.8303939641
 31
0.0
  0
LINE
  5
93
330
2B
100
AcDbEntity
  8
Y-CHASSIS
  6
Continuous
 62
     7
100
AcDbLine
 10
72.1789856109
 20
287.2752578009
 30
0.0
 11
50.1789856109
 21
287.2752578009
 31
0.0
  0
LINE
  5
94
330
2B
100
AcDbEntity
  8
Y-CHASSIS
  6
Continuous
 62
     7
100
AcDbLine
 10
156.1789856109
 20
287.2752578009
 30
0.0
 11
136.1789856109
 21
267.2752578009
 31
0.0
  0
LINE
  5
95
330
2B
100
AcDbEntity
  8
Y-CHASSIS
  6
Continuous
 62
     7
100
AcDbLine
 10
92.1789856109
 20
267.2752578009
 30
0.0
 11
72.1789856109
 21
287.2752578009
 31
0.0
  0
LINE
  5
96
330
2B
100
AcDbEntity
  8
Y-CHASSIS
  6
Continuous
 62
     7
100
AcDbLine
 10
136.1789856109
 20
167.7201216378
 30
0.0
 11
136.1789856109
 21
159.2752578009
 31
0.0
  0
ARC
  5
97
330
2B
100
AcDbEntity
  8
Y-CHASSIS
  6
Continuous
 62
     7
100
AcDbCircle
 10
131.1789856109
 20
167.7201216378
 30
0.0
 40
4.99999999999999
100
AcDbArc
 50
0.0
 51
90.0
  0
LINE
  5
98
330
2B
100
AcDbEntity
  8
Y-CHASSIS
  6
Continuous
 62
     7
100
AcDbLine
 10
97.1789856109
 20
172.7201216378
 30
0.0
 11
131.1789856109
 21
172.7201216378
 31
0.0
  0
ARC
  5
99
330
2B
100
AcDbEntity
  8
Y-CHASSIS
  6
Continuous
 62
     7
100
AcDbCircle
 10
97.1789856109
 20
167.7201216378
 30
0.0
 40
4.999999999999994
100
AcDbArc
 50
90.0
 51
180.0
  0
LINE
  5
9A
330
2B
100
AcDbEntity
  8
Y-CHASSIS
  6
Continuous
 62
     7
100
AcDbLine
 10
92.1789856109
 20
159.2752578009
 30
0.0
 11
92.1789856109
 21
167.7201216378
 31
0.0
  0
LINE
  5
9B
330
2B
100
AcDbEntity
  8
Y-CHASSIS
  6
Continuous
 62
     7
100
AcDbLine
 10
156.1789856109
 20
139.2752578009
 30
0.0
 11
178.1789856109
 21
139.2752578009
 31
0.0
  0
LINE
  5
9C
330
2B
100
AcDbEntity
  8
Y-CHASSIS
  6
Continuous
 62
     7
100
AcDbLine
 10
136.1789856109
 20
159.2752578009
 30
0.0
 11
156.1789856109
 21
139.2752578009
 31
0.0
  0
LINE
  5
9D
330
2B
100
AcDbEntity
  8
Y-CHASSIS
  6
Continuous
 62
     7
100
AcDbLine
 10
72.1789856109
 20
139.2752578009
 30
0.0
 11
92.1789856109
 21
159.2752578009
 31
0.0
  0
CIRCLE
  5
9E
330
2B
100
AcDbEntity
  8
Y-CHASSIS
  6
Continuous
 62
     7
100
AcDbCircle
 10
131.2789856109
 20
243.2752578009
 30
0.0
 40
1.7
  0
CIRCLE
  5
9F
330
2B
100
AcDbEntity
  8
Y-CHASSIS
  6
Continuous
 62
     7
100
AcDbCircle
 10
114.2789856109
 20
243.2752578009
 30
0.0
 40
1.7
  0
CIRCLE
  5
A0
330
2B
100
AcDbEntity
  8
Y-CHASSIS
  6
Continuous
 62
     7
100
AcDbCircle
 10
131.2789856109
 20
183.2752578009
 30
0.0
 40
1.7
  0
CIRCLE
  5
A1
330
2B
100
AcDbEntity
  8
Y-CHASSIS
  6
Continuous
 62
     7
100
AcDbCircle
 10
114.2789856109
 20
183.2752578009
 30
0.0
 40
1.7
  0
CIRCLE
  5
A2
330
2B
100
AcDbEntity
  8
Y-CHASSIS
  6
Continuous
 62
     7
100
AcDbCircle
 10
92.8789856109
 20
246.8303939641
 30
0.0
 40
2.2
  0
CIRCLE
  5
A3
330
2B
100
AcDbEntity
  8
Y-CHASSIS
  6
Continuous
 62
     7
100
AcDbCircle
 10
92.8789856109
 20
236.8303939641
 30
0.0
 40
2.2
  0
ENDBLK
  5
A5
330
2B
100
AcDbEntity
  8
0
100
AcDbBlockEnd
  0
ENDSEC
  0
SECTION
  2
ENTITIES
  0
INSERT
  5
2C
330
1F
100
AcDbEntity
  8
Default
100
AcDbBlockReference
  2
SE
 10
0.0
 20
0.0
 30
0.0
  0
ENDSEC
  0
SECTION
  2
OBJECTS
  0
DICTIONARY
  5
C
330
0
100
AcDbDictionary
281
     1
  3
ACAD_GROUP
350
D
  3
ACAD_LAYOUT
350
1A
  3
ACAD_MLINESTYLE
350
17
  3
ACAD_PLOTSETTINGS
350
19
  3
ACAD_PLOTSTYLENAME
350
E
  0
DICTIONARY
  5
D
102
{ACAD_REACTORS
330
C
102
}
330
C
100
AcDbDictionary
281
     1
  0
DICTIONARY
  5
1A
102
{ACAD_REACTORS
330
C
102
}
330
C
100
AcDbDictionary
281
     1
  3
Layout1
350
1E
  3
Model
350
22
  0
DICTIONARY
  5
17
102
{ACAD_REACTORS
330
C
102
}
330
C
100
AcDbDictionary
281
     1
  3
Standard
350
18
  0
DICTIONARY
  5
19
102
{ACAD_REACTORS
330
C
102
}
330
C
100
AcDbDictionary
281
     1
  0
ACDBDICTIONARYWDFLT
  5
E
102
{ACAD_REACTORS
330
C
102
}
330
C
100
AcDbDictionary
281
     1
  3
Normal
350
F
100
AcDbDictionaryWithDefault
340
F
  0
LAYOUT
  5
1E
102
{ACAD_REACTORS
330
1A
102
}
330
1A
100
AcDbPlotSettings
  1

  2
none_device
  4

  6

 40
0.0
 41
0.0
 42
0.0
 43
0.0
 44
0.0
 45
0.0
 46
0.0
 47
0.0
 48
0.0
 49
0.0
140
0.0
141
0.0
142
1.0
143
1.0
 70
   688
 72
     0
 73
     0
 74
     5
  7

 75
    16
147
1.0
148
0.0
149
0.0
100
AcDbLayout
  1
Layout1
 70
     1
 71
     1
 10
0.0
 20
0.0
 11
420.0
 21
297.0
 12
0.0
 22
0.0
 32
0.0
 14
0.0
 24
0.0
 34
0.0
 15
420.0
 25
297.0
 35
0.0
146
0.0
 13
0.0
 23
0.0
 33
0.0
 16
1.0
 26
0.0
 36
0.0
 17
0.0
 27
1.0
 37
0.0
 76
     0
330
1B
  0
LAYOUT
  5
22
102
{ACAD_REACTORS
330
1A
102
}
330
1A
100
AcDbPlotSettings
  1

  2
none_device
  4

  6

 40
0.0
 41
0.0
 42
0.0
 43
0.0
 44
0.0
 45
0.0
 46
0.0
 47
0.0
 48
0.0
 49
0.0
140
0.0
141
0.0
142
1.0
143
1.0
 70
  1712
 72
     0
 73
     0
 74
     0
  7

 75
     0
147
1.0
148
0.0
149
0.0
100
AcDbLayout
  1
Model
 70
     1
 71
     0
 10
0.0
 20
0.0
 11
420.0
 21
297.0
 12
0.0
 22
0.0
 32
0.0
 14
0.0
 24
0.0
 34
0.0
 15
420.0
 25
297.0
 35
0.0
146
0.0
 13
0.0
 23
0.0
 33
0.0
 16
1.0
 26
0.0
 36
0.0
 17
0.0
 27
1.0
 37
0.0
 76
     0
330
1F
  0
MLINESTYLE
  5
18
102
{ACAD_REACTORS
330
17
102
}
330
17
100
AcDbMlineStyle
  2
Standard
 70
     0
  3

 62
   256
 51
90.0
 52
90.0
 71
     2
 49
0.5
 62
   256
  6
BYLAYER
 49
-0.5
 62
   256
  6
BYLAYER
  0
ACDBPLACEHOLDER
  5
F
102
{ACAD_REACTORS
330
E
102
}
330
E
  0
ENDSEC
  0
EOF
