  0
SECTION
  2
HEADER
  9
$ACADVER
  1
AC1018
  9
$ACADMAINTVER
 70
     0
  9
$DWGCODEPAGE
  3
ANSI_1252
  9
$INSBASE
 10
0.0
 20
0.0
 30
0.0
  9
$EXTMIN
 10
0.0
 20
0.0
 30
-0.0000000000000002
  9
$EXTMAX
 10
100.0
 20
40.0
 30
0.0
  9
$LIMMIN
 10
0.0
 20
0.0
  9
$LIMMAX
 10
12.0
 20
9.0
  9
$ORTHOMODE
 70
     0
  9
$REGENMODE
 70
     1
  9
$FILLMODE
 70
     1
  9
$QTEXTMODE
 70
     0
  9
$MIRRTEXT
 70
     1
  9
$LTSCALE
 40
1.0
  9
$ATTMODE
 70
     1
  9
$TEXTSIZE
 40
0.2
  9
$TRACEWID
 40
0.05
  9
$TEXTSTYLE
  7
Standard
  9
$CLAYER
  8
DEFAULT
  9
$CELTYPE
  6
ByLayer
  9
$CECOLOR
 62
   256
  9
$CELTSCALE
 40
1.0
  9
$DISPSILH
 70
     0
  9
$DIMSCALE
 40
1.0
  9
$DIMASZ
 40
0.18
  9
$DIMEXO
 40
0.0625
  9
$DIMDLI
 40
0.38
  9
$DIMRND
 40
0.0
  9
$DIMDLE
 40
0.0
  9
$DIMEXE
 40
0.18
  9
$DIMTP
 40
0.0
  9
$DIMTM
 40
0.0
  9
$DIMTXT
 40
0.18
  9
$DIMCEN
 40
0.09
  9
$DIMTSZ
 40
0.0
  9
$DIMTOL
 70
     0
  9
$DIMLIM
 70
     0
  9
$DIMTIH
 70
     1
  9
$DIMTOH
 70
     1
  9
$DIMSE1
 70
     0
  9
$DIMSE2
 70
     0
  9
$DIMTAD
 70
     0
  9
$DIMZIN
 70
     0
  9
$DIMBLK
  1

  9
$DIMASO
 70
     1
  9
$DIMSHO
 70
     1
  9
$DIMPOST
  1

  9
$DIMAPOST
  1

  9
$DIMALT
 70
     0
  9
$DIMALTD
 70
     2
  9
$DIMALTF
 40
25.4
  9
$DIMLFAC
 40
1.0
  9
$DIMTOFL
 70
     0
  9
$DIMTVP
 40
0.0
  9
$DIMTIX
 70
     0
  9
$DIMSOXD
 70
     0
  9
$DIMSAH
 70
     0
  9
$DIMBLK1
  1

  9
$DIMBLK2
  1

  9
$DIMSTYLE
  2
Standard
  9
$DIMCLRD
 70
     0
  9
$DIMCLRE
 70
     0
  9
$DIMCLRT
 70
     0
  9
$DIMTFAC
 40
1.0
  9
$DIMGAP
 40
0.09
  9
$DIMJUST
 70
     0
  9
$DIMSD1
 70
     0
  9
$DIMSD2
 70
     0
  9
$DIMTOLJ
 70
     1
  9
$DIMTZIN
 70
     0
  9
$DIMALTZ
 70
     0
  9
$DIMALTTZ
 70
     0
  9
$DIMUPT
 70
     0
  9
$DIMDEC
 70
     4
  9
$DIMTDEC
 70
     4
  9
$DIMALTU
 70
     2
  9
$DIMALTTD
 70
     2
  9
$DIMTXSTY
  7
Standard
  9
$DIMAUNIT
 70
     0
  9
$DIMADEC
 70
     0
  9
$DIMALTRND
 40
0.0
  9
$DIMAZIN
 70
     0
  9
$DIMDSEP
 70
    46
  9
$DIMATFIT
 70
     3
  9
$DIMFRAC
 70
     0
  9
$DIMLDRBLK
  1

  9
$DIMLUNIT
 70
     2
  9
$DIMLWD
 70
    -2
  9
$DIMLWE
 70
    -2
  9
$DIMTMOVE
 70
     2
  9
$LUNITS
 70
     2
  9
$LUPREC
 70
     3
  9
$SKETCHINC
 40
0.1
  9
$FILLETRAD
 40
0.5
  9
$AUNITS
 70
     0
  9
$AUPREC
 70
     0
  9
$MENU
  1
.
  9
$ELEVATION
 40
0.0
  9
$PELEVATION
 40
0.0
  9
$THICKNESS
 40
0.0
  9
$LIMCHECK
 70
     0
  9
$CHAMFERA
 40
0.5
  9
$CHAMFERB
 40
0.5
  9
$CHAMFERC
 40
1.0
  9
$CHAMFERD
 40
0.0
  9
$SKPOLY
 70
     0
  9
$TDCREATE
 40
2455266.068038322
  9
$TDUCREATE
 40
2455266.026371655
  9
$TDUPDATE
 40
2455266.068038333
  9
$TDUUPDATE
 40
2455266.026371667
  9
$TDINDWG
 40
0.0000000116
  9
$TDUSRTIMER
 40
0.0000000116
  9
$USRTIMER
 70
     1
  9
$ANGBASE
 50
0.0
  9
$ANGDIR
 70
     0
  9
$PDMODE
 70
     0
  9
$PDSIZE
 40
0.0
  9
$PLINEWID
 40
0.0
  9
$SPLFRAME
 70
     0
  9
$SPLINETYPE
 70
     6
  9
$SPLINESEGS
 70
     8
  9
$HANDSEED
  5
466
  9
$SURFTAB1
 70
     6
  9
$SURFTAB2
 70
     6
  9
$SURFTYPE
 70
     6
  9
$SURFU
 70
     6
  9
$SURFV
 70
     6
  9
$UCSBASE
  2

  9
$UCSNAME
  2

  9
$UCSORG
 10
0.0
 20
0.0
 30
0.0
  9
$UCSXDIR
 10
1.0
 20
0.0
 30
0.0
  9
$UCSYDIR
 10
0.0
 20
1.0
 30
0.0
  9
$UCSORTHOREF
  2

  9
$UCSORTHOVIEW
 70
     0
  9
$UCSORGTOP
 10
0.0
 20
0.0
 30
0.0
  9
$UCSORGBOTTOM
 10
0.0
 20
0.0
 30
0.0
  9
$UCSORGLEFT
 10
0.0
 20
0.0
 30
0.0
  9
$UCSORGRIGHT
 10
0.0
 20
0.0
 30
0.0
  9
$UCSORGFRONT
 10
0.0
 20
0.0
 30
0.0
  9
$UCSORGBACK
 10
0.0
 20
0.0
 30
0.0
  9
$PUCSBASE
  2

  9
$PUCSNAME
  2

  9
$PUCSORG
 10
0.0
 20
0.0
 30
0.0
  9
$PUCSXDIR
 10
1.0
 20
0.0
 30
0.0
  9
$PUCSYDIR
 10
0.0
 20
1.0
 30
0.0
  9
$PUCSORTHOREF
  2

  9
$PUCSORTHOVIEW
 70
     0
  9
$PUCSORGTOP
 10
0.0
 20
0.0
 30
0.0
  9
$PUCSORGBOTTOM
 10
0.0
 20
0.0
 30
0.0
  9
$PUCSORGLEFT
 10
0.0
 20
0.0
 30
0.0
  9
$PUCSORGRIGHT
 10
0.0
 20
0.0
 30
0.0
  9
$PUCSORGFRONT
 10
0.0
 20
0.0
 30
0.0
  9
$PUCSORGBACK
 10
0.0
 20
0.0
 30
0.0
  9
$USERI1
 70
     0
  9
$USERI2
 70
     0
  9
$USERI3
 70
     0
  9
$USERI4
 70
     0
  9
$USERI5
 70
     0
  9
$USERR1
 40
0.0
  9
$USERR2
 40
0.0
  9
$USERR3
 40
0.0
  9
$USERR4
 40
0.0
  9
$USERR5
 40
0.0
  9
$WORLDVIEW
 70
     1
  9
$SHADEDGE
 70
     3
  9
$SHADEDIF
 70
    70
  9
$TILEMODE
 70
     1
  9
$MAXACTVP
 70
    64
  9
$PINSBASE
 10
0.0
 20
0.0
 30
0.0
  9
$PLIMCHECK
 70
     0
  9
$PEXTMIN
 10
1.000000000000000E+20
 20
1.000000000000000E+20
 30
1.000000000000000E+20
  9
$PEXTMAX
 10
-1.000000000000000E+20
 20
-1.000000000000000E+20
 30
-1.000000000000000E+20
  9
$PLIMMIN
 10
0.0
 20
0.0
  9
$PLIMMAX
 10
12.0
 20
9.0
  9
$UNITMODE
 70
     0
  9
$VISRETAIN
 70
     1
  9
$PLINEGEN
 70
     0
  9
$PSLTSCALE
 70
     1
  9
$TREEDEPTH
 70
  3020
  9
$CMLSTYLE
  2
Standard
  9
$CMLJUST
 70
     0
  9
$CMLSCALE
 40
1.0
  9
$PROXYGRAPHICS
 70
     1
  9
$MEASUREMENT
 70
     0
  9
$CELWEIGHT
370
    -1
  9
$ENDCAPS
280
     0
  9
$JOINSTYLE
280
     0
  9
$LWDISPLAY
290
     0
  9
$INSUNITS
 70
     4
  9
$HYPERLINKBASE
  1

  9
$STYLESHEET
  1

  9
$XEDIT
290
     1
  9
$CEPSNTYPE
380
     0
  9
$PSTYLEMODE
290
     1
  9
$FINGERPRINTGUID
  2
{FC78B44C-3F5B-45A0-A7B0-6BF967E8E02F}
  9
$VERSIONGUID
  2
{FAEB1C32-E019-11D5-929B-00C0DF256EC4}
  9
$EXTNAMES
290
     1
  9
$PSVPSCALE
 40
0.0
  9
$OLESTARTUP
290
     0
  9
$SORTENTS
280
   127
  9
$INDEXCTL
280
     0
  9
$HIDETEXT
280
     1
  9
$XCLIPFRAME
290
     0
  9
$HALOGAP
280
     0
  9
$OBSCOLOR
 70
   257
  9
$OBSLTYPE
280
     0
  9
$INTERSECTIONDISPLAY
280
     0
  9
$INTERSECTIONCOLOR
 70
   257
  9
$DIMASSOC
280
     2
  9
$PROJECTNAME
  1

  0
ENDSEC
  0
SECTION
  2
CLASSES
  0
CLASS
  1
ACDBDICTIONARYWDFLT
  2
AcDbDictionaryWithDefault
  3
ObjectDBX Classes
 90
        0
 91
        4
280
     0
281
     0
  0
CLASS
  1
VISUALSTYLE
  2
AcDbVisualStyle
  3
ObjectDBX Classes
 90
     4095
 91
        4
280
     0
281
     0
  0
ENDSEC
  0
SECTION
  2
TABLES
  0
TABLE
  2
VPORT
  5
8
330
0
100
AcDbSymbolTable
 70
     1
  0
VPORT
  5
29
330
8
100
AcDbSymbolTableRecord
100
AcDbViewportTableRecord
  2
*Active
 70
     0
 10
0.0
 20
0.0
 11
1.0
 21
1.0
 12
50.0
 22
20.0
 13
0.0
 23
0.0
 14
0.5
 24
0.5
 15
0.5
 25
0.5
 16
0.0
 26
0.0
 36
1.0
 17
0.0
 27
0.0
 37
0.0
 40
40.8
 41
2.5
 42
50.0
 43
0.0
 44
0.0
 50
0.0
 51
0.0
 71
     0
 72
   100
 73
     1
 74
     3
 75
     0
 76
     0
 77
     0
 78
     0
281
     0
 65
     1
110
0.0
120
0.0
130
0.0
111
1.0
121
0.0
131
0.0
112
0.0
122
1.0
132
0.0
 79
     0
146
0.0
  0
ENDTAB
  0
TABLE
  2
LTYPE
  5
5
330
0
100
AcDbSymbolTable
 70
     1
  0
LTYPE
  5
14
330
5
100
AcDbSymbolTableRecord
100
AcDbLinetypeTableRecord
  2
ByBlock
 70
     0
  3

 72
    65
 73
     0
 40
0.0
  0
LTYPE
  5
15
330
5
100
AcDbSymbolTableRecord
100
AcDbLinetypeTableRecord
  2
ByLayer
 70
     0
  3

 72
    65
 73
     0
 40
0.0
  0
LTYPE
  5
16
330
5
100
AcDbSymbolTableRecord
100
AcDbLinetypeTableRecord
  2
Continuous
 70
     0
  3
Solid line
 72
    65
 73
     0
 40
0.0
  0
ENDTAB
  0
TABLE
  2
LAYER
  5
2
330
0
100
AcDbSymbolTable
 70
     2
  0
LAYER
  5
10
330
2
100
AcDbSymbolTableRecord
100
AcDbLayerTableRecord
  2
0
 70
     0
 62
     7
  6
Continuous
370
    -3
390
F
  0
LAYER
  5
3B
330
2
100
AcDbSymbolTableRecord
100
AcDbLayerTableRecord
  2
DEFAULT
 70
     0
 62
     7
  6
Continuous
370
    -3
390
F
  0
ENDTAB
  0
TABLE
  2
STYLE
  5
3
330
0
100
AcDbSymbolTable
 70
     1
  0
STYLE
  5
11
330
3
100
AcDbSymbolTableRecord
100
AcDbTextStyleTableRecord
  2
Standard
 70
     0
 40
0.0
 41
1.0
 50
0.0
 71
     0
 42
0.2
  3
txt
  4

  0
ENDTAB
  0
TABLE
  2
VIEW
  5
6
330
0
100
AcDbSymbolTable
 70
     0
  0
ENDTAB
  0
TABLE
  2
UCS
  5
7
330
0
100
AcDbSymbolTable
 70
     0
  0
ENDTAB
  0
TABLE
  2
APPID
  5
9
330
0
100
AcDbSymbolTable
 70
     1
  0
APPID
  5
12
330
9
100
AcDbSymbolTableRecord
100
AcDbRegAppTableRecord
  2
ACAD
 70
     0
  0
ENDTAB
  0
TABLE
  2
DIMSTYLE
  5
A
330
0
100
AcDbSymbolTable
 70
     1
100
AcDbDimStyleTable
  0
DIMSTYLE
105
27
330
A
100
AcDbSymbolTableRecord
100
AcDbDimStyleTableRecord
  2
Standard
 70
     0
340
11
  0
ENDTAB
  0
TABLE
  2
BLOCK_RECORD
  5
1
330
0
100
AcDbSymbolTable
 70
     1
  0
BLOCK_RECORD
  5
1F
330
1
100
AcDbSymbolTableRecord
100
AcDbBlockTableRecord
  2
*Model_Space
340
22
  0
BLOCK_RECORD
  5
1B
330
1
100
AcDbSymbolTableRecord
100
AcDbBlockTableRecord
  2
*Paper_Space
340
1E
  0
BLOCK_RECORD
  5
23
330
1
100
AcDbSymbolTableRecord
100
AcDbBlockTableRecord
  2
*Paper_Space0
340
26
  0
ENDTAB
  0
ENDSEC
  0
SECTION
  2
BLOCKS
  0
BLOCK
  5
20
330
1F
100
AcDbEntity
  8
0
100
AcDbBlockBegin
  2
*Model_Space
 70
     0
 10
0.0
 20
0.0
 30
0.0
  3
*Model_Space
  1

  0
ENDBLK
  5
21
330
1F
100
AcDbEntity
  8
0
100
AcDbBlockEnd
  0
BLOCK
  5
1C
330
1B
100
AcDbEntity
 67
     1
  8
0
100
AcDbBlockBegin
  2
*Paper_Space
 70
     0
 10
0.0
 20
0.0
 30
0.0
  3
*Paper_Space
  1

  0
ENDBLK
  5
1D
330
1B
100
AcDbEntity
 67
     1
  8
0
100
AcDbBlockEnd
  0
BLOCK
  5
24
330
23
100
AcDbEntity
  8
0
100
AcDbBlockBegin
  2
*Paper_Space0
 70
     0
 10
0.0
 20
0.0
 30
0.0
  3
*Paper_Space0
  1

  0
ENDBLK
  5
25
330
23
100
AcDbEntity
  8
0
100
AcDbBlockEnd
  0
ENDSEC
  0
SECTION
  2
ENTITIES
  0
POLYLINE
  5
3C
330
1F
100
AcDbEntity
  8
DEFAULT
100
AcDb2dPolyline
 66
     1
 10
0.0
 20
0.0
 30
-0.0000000000000002
  0
VERTEX
  5
3D
330
3C
100
AcDbEntity
  8
DEFAULT
100
AcDbVertex
100
AcDb2dVertex
 10
42.8
 20
4.999999999999999
 30
-0.0000000000000002
  0
VERTEX
  5
3E
330
3C
100
AcDbEntity
  8
DEFAULT
100
AcDbVertex
100
AcDb2dVertex
 10
42.80054199267417
 20
5.048831076275532
 30
-0.0000000000000002
  0
VERTEX
  5
3F
330
3C
100
AcDbEntity
  8
DEFAULT
100
AcDbVertex
100
AcDb2dVertex
 10
42.80218722524753
 20
5.098076537127048
 30
-0.0000000000000002
  0
VERTEX
  5
40
330
3C
100
AcDbEntity
  8
DEFAULT
100
AcDbVertex
100
AcDb2dVertex
 10
42.80496389757058
 20
5.14770412665669
 30
-0.0000000000000001
  0
VERTEX
  5
41
330
3C
100
AcDbEntity
  8
DEFAULT
100
AcDbVertex
100
AcDb2dVertex
 10
42.80889920105166
 20
5.197679763374949
 30
-0.0000000000000001
  0
VERTEX
  5
42
330
3C
100
AcDbEntity
  8
DEFAULT
100
AcDbVertex
100
AcDb2dVertex
 10
42.81401919303674
 20
5.247967561564509
 30
-0.0000000000000001
  0
VERTEX
  5
43
330
3C
100
AcDbEntity
  8
DEFAULT
100
AcDbVertex
100
AcDb2dVertex
 10
42.82034866972987
 20
5.298529861909367
 30
-0.0000000000000001
  0
VERTEX
  5
44
330
3C
100
AcDbEntity
  8
DEFAULT
100
AcDbVertex
100
AcDb2dVertex
 10
42.82791103837612
 20
5.349327271754856
 30
-0.0000000000000001
  0
VERTEX
  5
45
330
3C
100
AcDbEntity
  8
DEFAULT
100
AcDbVertex
100
AcDb2dVertex
 10
42.83672818948352
 20
5.400318715306716
 30
-0.0000000000000001
  0
VERTEX
  5
46
330
3C
100
AcDbEntity
  8
DEFAULT
100
AcDbVertex
100
AcDb2dVertex
 10
42.8468203699124
 20
5.451461494012297
 30
-0.0000000000000001
  0
VERTEX
  5
47
330
3C
100
AcDbEntity
  8
DEFAULT
100
AcDbVertex
100
AcDb2dVertex
 10
42.85820605770596
 20
5.502711357294178
 30
-0.0000000000000001
  0
VERTEX
  5
48
330
3C
100
AcDbEntity
  8
DEFAULT
100
AcDbVertex
100
AcDb2dVertex
 10
42.87090183957604
 20
5.554022583726743
 30
-0.0000000000000001
  0
VERTEX
  5
49
330
3C
100
AcDbEntity
  8
DEFAULT
100
AcDbVertex
100
AcDb2dVertex
 10
42.88492229198853
 20
5.605348072659808
 30
-0.0000000000000001
  0
VERTEX
  5
4A
330
3C
100
AcDbEntity
  8
DEFAULT
100
AcDbVertex
100
AcDb2dVertex
 10
42.90027986681737
 20
5.656639446201277
 30
0.0
  0
VERTEX
  5
4B
330
3C
100
AcDbEntity
  8
DEFAULT
100
AcDbVertex
100
AcDb2dVertex
 10
42.91698478254831
 20
5.707847161373609
 30
0.0
  0
VERTEX
  5
4C
330
3C
100
AcDbEntity
  8
DEFAULT
100
AcDbVertex
100
AcDb2dVertex
 10
42.93504492201769
 20
5.75892063215796
 30
0.0
  0
VERTEX
  5
4D
330
3C
100
AcDbEntity
  8
DEFAULT
100
AcDbVertex
100
AcDb2dVertex
 10
42.95446573766265
 20
5.809808361036113
 30
0.0
  0
VERTEX
  5
4E
330
3C
100
AcDbEntity
  8
DEFAULT
100
AcDbVertex
100
AcDb2dVertex
 10
42.97525016523961
 20
5.860458079535381
 30
0.0
  0
VERTEX
  5
4F
330
3C
100
AcDbEntity
  8
DEFAULT
100
AcDbVertex
100
AcDb2dVertex
 10
42.99739854693514
 20
5.910816897176654
 30
0.0
  0
VERTEX
  5
50
330
3C
100
AcDbEntity
  8
DEFAULT
100
AcDbVertex
100
AcDb2dVertex
 10
43.0209085647495
 20
5.960831458122639
 30
0.0
  0
VERTEX
  5
51
330
3C
100
AcDbEntity
  8
DEFAULT
100
AcDbVertex
100
AcDb2dVertex
 10
43.04577518497454
 20
6.010448104723199
 30
0.0
  0
VERTEX
  5
52
330
3C
100
AcDbEntity
  8
DEFAULT
100
AcDbVertex
100
AcDb2dVertex
 10
43.07199061451955
 20
6.059613047059758
 30
0.0
  0
VERTEX
  5
53
330
3C
100
AcDbEntity
  8
DEFAULT
100
AcDbVertex
100
AcDb2dVertex
 10
43.09954426975564
 20
6.108272537502123
 30
0.0
  0
VERTEX
  5
54
330
3C
100
AcDbEntity
  8
DEFAULT
100
AcDbVertex
100
AcDb2dVertex
 10
43.12842275845774
 20
6.156373049210801
 30
0.0
  0
VERTEX
  5
55
330
3C
100
AcDbEntity
  8
DEFAULT
100
AcDbVertex
100
AcDb2dVertex
 10
43.15860987531894
 20
6.203861457447302
 30
0.0
  0
VERTEX
  5
56
330
3C
100
AcDbEntity
  8
DEFAULT
100
AcDbVertex
100
AcDb2dVertex
 10
43.19008661140058
 20
6.250685222495492
 30
0.0
  0
VERTEX
  5
57
330
3C
100
AcDbEntity
  8
DEFAULT
100
AcDbVertex
100
AcDb2dVertex
 10
43.22283117776016
 20
6.296792572950151
 30
0.0
  0
VERTEX
  5
58
330
3C
100
AcDbEntity
  8
DEFAULT
100
AcDbVertex
100
AcDb2dVertex
 10
43.25681904337349
 20
6.342132688095579
 30
0.0
  0
VERTEX
  5
59
330
3C
100
AcDbEntity
  8
DEFAULT
100
AcDbVertex
100
AcDb2dVertex
 10
43.29202298733532
 20
6.386655878078294
 30
0.0
  0
VERTEX
  5
5A
330
3C
100
AcDbEntity
  8
DEFAULT
100
AcDbVertex
100
AcDb2dVertex
 10
43.32841316518944
 20
6.430313760574225
 30
0.0
  0
VERTEX
  5
5B
330
3C
100
AcDbEntity
  8
DEFAULT
100
AcDbVertex
100
AcDb2dVertex
 10
43.36595718910333
 20
6.473059432662814
 30
0.0
  0
VERTEX
  5
5C
330
3C
100
AcDbEntity
  8
DEFAULT
100
AcDbVertex
100
AcDb2dVertex
 10
43.40462022147027
 20
6.51484763664813
 30
0.0
  0
VERTEX
  5
5D
330
3C
100
AcDbEntity
  8
DEFAULT
100
AcDbVertex
100
AcDb2dVertex
 10
43.44436508138958
 20
6.555634918610392
 30
0.0
  0
VERTEX
  5
5E
330
3C
100
AcDbEntity
  8
DEFAULT
100
AcDbVertex
100
AcDb2dVertex
 10
43.48515236335184
 20
6.595379778529708
 30
0.0
  0
VERTEX
  5
5F
330
3C
100
AcDbEntity
  8
DEFAULT
100
AcDbVertex
100
AcDb2dVertex
 10
43.52694056733716
 20
6.634042810896654
 30
0.0
  0
VERTEX
  5
60
330
3C
100
AcDbEntity
  8
DEFAULT
100
AcDbVertex
100
AcDb2dVertex
 10
43.56968623942576
 20
6.67158683481055
 30
0.0
  0
VERTEX
  5
61
330
3C
100
AcDbEntity
  8
DEFAULT
100
AcDbVertex
100
AcDb2dVertex
 10
43.61334412192166
 20
6.707977012664645
 30
0.0
  0
VERTEX
  5
62
330
3C
100
AcDbEntity
  8
DEFAULT
100
AcDbVertex
100
AcDb2dVertex
 10
43.65786731190438
 20
6.743180956626497
 30
0.0
  0
VERTEX
  5
63
330
3C
100
AcDbEntity
  8
DEFAULT
100
AcDbVertex
100
AcDb2dVertex
 10
43.70320742704982
 20
6.777168822239819
 30
0.0
  0
VERTEX
  5
64
330
3C
100
AcDbEntity
  8
DEFAULT
100
AcDbVertex
100
AcDb2dVertex
 10
43.74931477750449
 20
6.809913388599395
 30
0.0
  0
VERTEX
  5
65
330
3C
100
AcDbEntity
  8
DEFAULT
100
AcDbVertex
100
AcDb2dVertex
 10
43.79613854255267
 20
6.841390124681026
 30
0.0
  0
VERTEX
  5
66
330
3C
100
AcDbEntity
  8
DEFAULT
100
AcDbVertex
100
AcDb2dVertex
 10
43.84362695078917
 20
6.871577241542242
 30
0.0
  0
VERTEX
  5
67
330
3C
100
AcDbEntity
  8
DEFAULT
100
AcDbVertex
100
AcDb2dVertex
 10
43.89172746249785
 20
6.900455730244343
 30
0.0
  0
VERTEX
  5
68
330
3C
100
AcDbEntity
  8
DEFAULT
100
AcDbVertex
100
AcDb2dVertex
 10
43.94038695294022
 20
6.928009385480448
 30
0.0
  0
VERTEX
  5
69
330
3C
100
AcDbEntity
  8
DEFAULT
100
AcDbVertex
100
AcDb2dVertex
 10
43.98955189527678
 20
6.954224815025452
 30
0.0
  0
VERTEX
  5
6A
330
3C
100
AcDbEntity
  8
DEFAULT
100
AcDbVertex
100
AcDb2dVertex
 10
44.03916854187735
 20
6.979091435250502
 30
0.0
  0
VERTEX
  5
6B
330
3C
100
AcDbEntity
  8
DEFAULT
100
AcDbVertex
100
AcDb2dVertex
 10
44.08918310282333
 20
7.002601453064854
 30
0.0
  0
VERTEX
  5
6C
330
3C
100
AcDbEntity
  8
DEFAULT
100
AcDbVertex
100
AcDb2dVertex
 10
44.13954192046461
 20
7.024749834760399
 30
0.0
  0
VERTEX
  5
6D
330
3C
100
AcDbEntity
  8
DEFAULT
100
AcDbVertex
100
AcDb2dVertex
 10
44.19019163896387
 20
7.045534262337344
 30
0.0
  0
VERTEX
  5
6E
330
3C
100
AcDbEntity
  8
DEFAULT
100
AcDbVertex
100
AcDb2dVertex
 10
44.24107936784203
 20
7.064955077982316
 30
0.0
  0
VERTEX
  5
6F
330
3C
100
AcDbEntity
  8
DEFAULT
100
AcDbVertex
100
AcDb2dVertex
 10
44.29215283862638
 20
7.08301521745169
 30
0.0
  0
VERTEX
  5
70
330
3C
100
AcDbEntity
  8
DEFAULT
100
AcDbVertex
100
AcDb2dVertex
 10
44.34336055379872
 20
7.099720133182628
 30
0.0
  0
VERTEX
  5
71
330
3C
100
AcDbEntity
  8
DEFAULT
100
AcDbVertex
100
AcDb2dVertex
 10
44.39465192734018
 20
7.115077708011468
 30
-0.0000000000000001
  0
VERTEX
  5
72
330
3C
100
AcDbEntity
  8
DEFAULT
100
AcDbVertex
100
AcDb2dVertex
 10
44.44597741627325
 20
7.129098160423971
 30
-0.0000000000000001
  0
VERTEX
  5
73
330
3C
100
AcDbEntity
  8
DEFAULT
100
AcDbVertex
100
AcDb2dVertex
 10
44.49728864270582
 20
7.141793942294038
 30
-0.0000000000000001
  0
VERTEX
  5
74
330
3C
100
AcDbEntity
  8
DEFAULT
100
AcDbVertex
100
AcDb2dVertex
 10
44.54853850598771
 20
7.153179630087602
 30
-0.0000000000000001
  0
VERTEX
  5
75
330
3C
100
AcDbEntity
  8
DEFAULT
100
AcDbVertex
100
AcDb2dVertex
 10
44.59968128469328
 20
7.163271810516462
 30
-0.0000000000000001
  0
VERTEX
  5
76
330
3C
100
AcDbEntity
  8
DEFAULT
100
AcDbVertex
100
AcDb2dVertex
 10
44.65067272824515
 20
7.17208896162388
 30
-0.0000000000000001
  0
VERTEX
  5
77
330
3C
100
AcDbEntity
  8
DEFAULT
100
AcDbVertex
100
AcDb2dVertex
 10
44.70147013809063
 20
7.179651330270135
 30
-0.0000000000000001
  0
VERTEX
  5
78
330
3C
100
AcDbEntity
  8
DEFAULT
100
AcDbVertex
100
AcDb2dVertex
 10
44.75203243843549
 20
7.18598080696326
 30
-0.0000000000000001
  0
VERTEX
  5
79
330
3C
100
AcDbEntity
  8
DEFAULT
100
AcDbVertex
100
AcDb2dVertex
 10
44.80232023662505
 20
7.19110079894833
 30
-0.0000000000000001
  0
VERTEX
  5
7A
330
3C
100
AcDbEntity
  8
DEFAULT
100
AcDbVertex
100
AcDb2dVertex
 10
44.85229587334332
 20
7.195036102429428
 30
-0.0000000000000001
  0
VERTEX
  5
7B
330
3C
100
AcDbEntity
  8
DEFAULT
100
AcDbVertex
100
AcDb2dVertex
 10
44.90192346287296
 20
7.197812774752473
 30
-0.0000000000000002
  0
VERTEX
  5
7C
330
3C
100
AcDbEntity
  8
DEFAULT
100
AcDbVertex
100
AcDb2dVertex
 10
44.95116892372448
 20
7.199458007325844
 30
-0.0000000000000002
  0
VERTEX
  5
7D
330
3C
100
AcDbEntity
  8
DEFAULT
100
AcDbVertex
100
AcDb2dVertex
 10
45.00000000000001
 20
7.199999999999998
 30
-0.0000000000000002
  0
VERTEX
  5
7E
330
3C
100
AcDbEntity
  8
DEFAULT
100
AcDbVertex
100
AcDb2dVertex
 10
45.04883107627555
 20
7.199458007325844
 30
-0.0000000000000002
  0
VERTEX
  5
7F
330
3C
100
AcDbEntity
  8
DEFAULT
100
AcDbVertex
100
AcDb2dVertex
 10
45.09807653712706
 20
7.197812774752473
 30
-0.0000000000000002
  0
VERTEX
  5
80
330
3C
100
AcDbEntity
  8
DEFAULT
100
AcDbVertex
100
AcDb2dVertex
 10
45.14770412665669
 20
7.195036102429428
 30
-0.0000000000000001
  0
VERTEX
  5
81
330
3C
100
AcDbEntity
  8
DEFAULT
100
AcDbVertex
100
AcDb2dVertex
 10
45.19767976337494
 20
7.191100798948329
 30
-0.0000000000000001
  0
VERTEX
  5
82
330
3C
100
AcDbEntity
  8
DEFAULT
100
AcDbVertex
100
AcDb2dVertex
 10
45.24796756156451
 20
7.18598080696326
 30
-0.0000000000000001
  0
VERTEX
  5
83
330
3C
100
AcDbEntity
  8
DEFAULT
100
AcDbVertex
100
AcDb2dVertex
 10
45.29852986190937
 20
7.179651330270135
 30
-0.0000000000000001
  0
VERTEX
  5
84
330
3C
100
AcDbEntity
  8
DEFAULT
100
AcDbVertex
100
AcDb2dVertex
 10
45.34932727175485
 20
7.172088961623878
 30
-0.0000000000000001
  0
VERTEX
  5
85
330
3C
100
AcDbEntity
  8
DEFAULT
100
AcDbVertex
100
AcDb2dVertex
 10
45.4003187153067
 20
7.163271810516461
 30
-0.0000000000000001
  0
VERTEX
  5
86
330
3C
100
AcDbEntity
  8
DEFAULT
100
AcDbVertex
100
AcDb2dVertex
 10
45.45146149401229
 20
7.153179630087602
 30
-0.0000000000000001
  0
VERTEX
  5
87
330
3C
100
AcDbEntity
  8
DEFAULT
100
AcDbVertex
100
AcDb2dVertex
 10
45.50271135729417
 20
7.141793942294039
 30
-0.0000000000000001
  0
VERTEX
  5
88
330
3C
100
AcDbEntity
  8
DEFAULT
100
AcDbVertex
100
AcDb2dVertex
 10
45.55402258372673
 20
7.129098160423971
 30
-0.0000000000000001
  0
VERTEX
  5
89
330
3C
100
AcDbEntity
  8
DEFAULT
100
AcDbVertex
100
AcDb2dVertex
 10
45.60534807265981
 20
7.115077708011468
 30
-0.0000000000000001
  0
VERTEX
  5
8A
330
3C
100
AcDbEntity
  8
DEFAULT
100
AcDbVertex
100
AcDb2dVertex
 10
45.65663944620127
 20
7.099720133182629
 30
0.0
  0
VERTEX
  5
8B
330
3C
100
AcDbEntity
  8
DEFAULT
100
AcDbVertex
100
AcDb2dVertex
 10
45.7078471613736
 20
7.083015217451692
 30
0.0
  0
VERTEX
  5
8C
330
3C
100
AcDbEntity
  8
DEFAULT
100
AcDbVertex
100
AcDb2dVertex
 10
45.75892063215795
 20
7.064955077982318
 30
0.0
  0
VERTEX
  5
8D
330
3C
100
AcDbEntity
  8
DEFAULT
100
AcDbVertex
100
AcDb2dVertex
 10
45.8098083610361
 20
7.045534262337347
 30
0.0
  0
VERTEX
  5
8E
330
3C
100
AcDbEntity
  8
DEFAULT
100
AcDbVertex
100
AcDb2dVertex
 10
45.86045807953538
 20
7.024749834760404
 30
0.0
  0
VERTEX
  5
8F
330
3C
100
AcDbEntity
  8
DEFAULT
100
AcDbVertex
100
AcDb2dVertex
 10
45.91081689717664
 20
7.002601453064859
 30
0.0
  0
VERTEX
  5
90
330
3C
100
AcDbEntity
  8
DEFAULT
100
AcDbVertex
100
AcDb2dVertex
 10
45.96083145812264
 20
6.979091435250509
 30
0.0
  0
VERTEX
  5
91
330
3C
100
AcDbEntity
  8
DEFAULT
100
AcDbVertex
100
AcDb2dVertex
 10
46.0104481047232
 20
6.954224815025458
 30
0.0
  0
VERTEX
  5
92
330
3C
100
AcDbEntity
  8
DEFAULT
100
AcDbVertex
100
AcDb2dVertex
 10
46.05961304705975
 20
6.928009385480456
 30
0.0
  0
VERTEX
  5
93
330
3C
100
AcDbEntity
  8
DEFAULT
100
AcDbVertex
100
AcDb2dVertex
 10
46.10827253750211
 20
6.900455730244352
 30
0.0
  0
VERTEX
  5
94
330
3C
100
AcDbEntity
  8
DEFAULT
100
AcDbVertex
100
AcDb2dVertex
 10
46.15637304921078
 20
6.87157724154225
 30
0.0
  0
VERTEX
  5
95
330
3C
100
AcDbEntity
  8
DEFAULT
100
AcDbVertex
100
AcDb2dVertex
 10
46.20386145744729
 20
6.841390124681035
 30
0.0
  0
VERTEX
  5
96
330
3C
100
AcDbEntity
  8
DEFAULT
100
AcDbVertex
100
AcDb2dVertex
 10
46.25068522249547
 20
6.809913388599406
 30
0.0
  0
VERTEX
  5
97
330
3C
100
AcDbEntity
  8
DEFAULT
100
AcDbVertex
100
AcDb2dVertex
 10
46.29679257295014
 20
6.777168822239831
 30
0.0
  0
VERTEX
  5
98
330
3C
100
AcDbEntity
  8
DEFAULT
100
AcDbVertex
100
AcDb2dVertex
 10
46.34213268809557
 20
6.743180956626511
 30
0.0
  0
VERTEX
  5
99
330
3C
100
AcDbEntity
  8
DEFAULT
100
AcDbVertex
100
AcDb2dVertex
 10
46.38665587807829
 20
6.707977012664661
 30
0.0
  0
VERTEX
  5
9A
330
3C
100
AcDbEntity
  8
DEFAULT
100
AcDbVertex
100
AcDb2dVertex
 10
46.43031376057422
 20
6.671586834810567
 30
0.0
  0
VERTEX
  5
9B
330
3C
100
AcDbEntity
  8
DEFAULT
100
AcDbVertex
100
AcDb2dVertex
 10
46.47305943266281
 20
6.634042810896672
 30
0.0
  0
VERTEX
  5
9C
330
3C
100
AcDbEntity
  8
DEFAULT
100
AcDbVertex
100
AcDb2dVertex
 10
46.51484763664813
 20
6.595379778529728
 30
0.0
  0
VERTEX
  5
9D
330
3C
100
AcDbEntity
  8
DEFAULT
100
AcDbVertex
100
AcDb2dVertex
 10
46.55563491861039
 20
6.555634918610413
 30
0.0
  0
VERTEX
  5
9E
330
3C
100
AcDbEntity
  8
DEFAULT
100
AcDbVertex
100
AcDb2dVertex
 10
46.59537977852971
 20
6.514847636648152
 30
0.0
  0
VERTEX
  5
9F
330
3C
100
AcDbEntity
  8
DEFAULT
100
AcDbVertex
100
AcDb2dVertex
 10
46.63404281089666
 20
6.473059432662835
 30
0.0
  0
VERTEX
  5
A0
330
3C
100
AcDbEntity
  8
DEFAULT
100
AcDbVertex
100
AcDb2dVertex
 10
46.67158683481055
 20
6.430313760574248
 30
0.0
  0
VERTEX
  5
A1
330
3C
100
AcDbEntity
  8
DEFAULT
100
AcDbVertex
100
AcDb2dVertex
 10
46.70797701266464
 20
6.386655878078314
 30
0.0
  0
VERTEX
  5
A2
330
3C
100
AcDbEntity
  8
DEFAULT
100
AcDbVertex
100
AcDb2dVertex
 10
46.74318095662648
 20
6.342132688095599
 30
0.0
  0
VERTEX
  5
A3
330
3C
100
AcDbEntity
  8
DEFAULT
100
AcDbVertex
100
AcDb2dVertex
 10
46.77716882223981
 20
6.296792572950172
 30
0.0
  0
VERTEX
  5
A4
330
3C
100
AcDbEntity
  8
DEFAULT
100
AcDbVertex
100
AcDb2dVertex
 10
46.8099133885994
 20
6.250685222495513
 30
0.0
  0
VERTEX
  5
A5
330
3C
100
AcDbEntity
  8
DEFAULT
100
AcDbVertex
100
AcDb2dVertex
 10
46.84139012468103
 20
6.203861457447321
 30
0.0
  0
VERTEX
  5
A6
330
3C
100
AcDbEntity
  8
DEFAULT
100
AcDbVertex
100
AcDb2dVertex
 10
46.87157724154225
 20
6.156373049210817
 30
0.0
  0
VERTEX
  5
A7
330
3C
100
AcDbEntity
  8
DEFAULT
100
AcDbVertex
100
AcDb2dVertex
 10
46.90045573024435
 20
6.108272537502139
 30
0.0
  0
VERTEX
  5
A8
330
3C
100
AcDbEntity
  8
DEFAULT
100
AcDbVertex
100
AcDb2dVertex
 10
46.92800938548045
 20
6.059613047059775
 30
0.0
  0
VERTEX
  5
A9
330
3C
100
AcDbEntity
  8
DEFAULT
100
AcDbVertex
100
AcDb2dVertex
 10
46.95422481502546
 20
6.010448104723213
 30
0.0
  0
VERTEX
  5
AA
330
3C
100
AcDbEntity
  8
DEFAULT
100
AcDbVertex
100
AcDb2dVertex
 10
46.97909143525051
 20
5.960831458122652
 30
0.0
  0
VERTEX
  5
AB
330
3C
100
AcDbEntity
  8
DEFAULT
100
AcDbVertex
100
AcDb2dVertex
 10
47.00260145306487
 20
5.910816897176667
 30
0.0
  0
VERTEX
  5
AC
330
3C
100
AcDbEntity
  8
DEFAULT
100
AcDbVertex
100
AcDb2dVertex
 10
47.02474983476041
 20
5.860458079535394
 30
0.0
  0
VERTEX
  5
AD
330
3C
100
AcDbEntity
  8
DEFAULT
100
AcDbVertex
100
AcDb2dVertex
 10
47.04553426233736
 20
5.809808361036125
 30
0.0
  0
VERTEX
  5
AE
330
3C
100
AcDbEntity
  8
DEFAULT
100
AcDbVertex
100
AcDb2dVertex
 10
47.06495507798233
 20
5.758920632157971
 30
0.0
  0
VERTEX
  5
AF
330
3C
100
AcDbEntity
  8
DEFAULT
100
AcDbVertex
100
AcDb2dVertex
 10
47.0830152174517
 20
5.707847161373619
 30
0.0
  0
VERTEX
  5
B0
330
3C
100
AcDbEntity
  8
DEFAULT
100
AcDbVertex
100
AcDb2dVertex
 10
47.09972013318264
 20
5.656639446201286
 30
0.0
  0
VERTEX
  5
B1
330
3C
100
AcDbEntity
  8
DEFAULT
100
AcDbVertex
100
AcDb2dVertex
 10
47.11507770801148
 20
5.605348072659817
 30
-0.0000000000000001
  0
VERTEX
  5
B2
330
3C
100
AcDbEntity
  8
DEFAULT
100
AcDbVertex
100
AcDb2dVertex
 10
47.12909816042398
 20
5.554022583726752
 30
-0.0000000000000001
  0
VERTEX
  5
B3
330
3C
100
AcDbEntity
  8
DEFAULT
100
AcDbVertex
100
AcDb2dVertex
 10
47.14179394229406
 20
5.502711357294186
 30
-0.0000000000000001
  0
VERTEX
  5
B4
330
3C
100
AcDbEntity
  8
DEFAULT
100
AcDbVertex
100
AcDb2dVertex
 10
47.15317963008761
 20
5.451461494012304
 30
-0.0000000000000001
  0
VERTEX
  5
B5
330
3C
100
AcDbEntity
  8
DEFAULT
100
AcDbVertex
100
AcDb2dVertex
 10
47.16327181051648
 20
5.400318715306722
 30
-0.0000000000000001
  0
VERTEX
  5
B6
330
3C
100
AcDbEntity
  8
DEFAULT
100
AcDbVertex
100
AcDb2dVertex
 10
47.1720889616239
 20
5.349327271754862
 30
-0.0000000000000001
  0
VERTEX
  5
B7
330
3C
100
AcDbEntity
  8
DEFAULT
100
AcDbVertex
100
AcDb2dVertex
 10
47.17965133027015
 20
5.298529861909372
 30
-0.0000000000000001
  0
VERTEX
  5
B8
330
3C
100
AcDbEntity
  8
DEFAULT
100
AcDbVertex
100
AcDb2dVertex
 10
47.18598080696327
 20
5.247967561564511
 30
-0.0000000000000001
  0
VERTEX
  5
B9
330
3C
100
AcDbEntity
  8
DEFAULT
100
AcDbVertex
100
AcDb2dVertex
 10
47.19110079894834
 20
5.197679763374953
 30
-0.0000000000000001
  0
VERTEX
  5
BA
330
3C
100
AcDbEntity
  8
DEFAULT
100
AcDbVertex
100
AcDb2dVertex
 10
47.19503610242943
 20
5.147704126656692
 30
-0.0000000000000001
  0
VERTEX
  5
BB
330
3C
100
AcDbEntity
  8
DEFAULT
100
AcDbVertex
100
AcDb2dVertex
 10
47.19781277475248
 20
5.098076537127048
 30
-0.0000000000000002
  0
VERTEX
  5
BC
330
3C
100
AcDbEntity
  8
DEFAULT
100
AcDbVertex
100
AcDb2dVertex
 10
47.19945800732585
 20
5.048831076275532
 30
-0.0000000000000002
  0
VERTEX
  5
BD
330
3C
100
AcDbEntity
  8
DEFAULT
100
AcDbVertex
100
AcDb2dVertex
 10
47.2
 20
4.999999999999999
 30
-0.0000000000000002
  0
SEQEND
  5
BE
330
3C
100
AcDbEntity
  8
DEFAULT
  0
POLYLINE
  5
BF
330
1F
100
AcDbEntity
  8
DEFAULT
100
AcDb2dPolyline
 66
     1
 10
0.0
 20
0.0
 30
-0.0000000000000002
  0
VERTEX
  5
C0
330
BF
100
AcDbEntity
  8
DEFAULT
100
AcDbVertex
100
AcDb2dVertex
 10
47.2
 20
4.999999999999999
 30
-0.0000000000000002
  0
VERTEX
  5
C1
330
BF
100
AcDbEntity
  8
DEFAULT
100
AcDbVertex
100
AcDb2dVertex
 10
47.19945800732585
 20
4.951168923724468
 30
-0.0000000000000002
  0
VERTEX
  5
C2
330
BF
100
AcDbEntity
  8
DEFAULT
100
AcDbVertex
100
AcDb2dVertex
 10
47.19781277475248
 20
4.901923462872952
 30
-0.0000000000000002
  0
VERTEX
  5
C3
330
BF
100
AcDbEntity
  8
DEFAULT
100
AcDbVertex
100
AcDb2dVertex
 10
47.19503610242943
 20
4.852295873343309
 30
-0.0000000000000001
  0
VERTEX
  5
C4
330
BF
100
AcDbEntity
  8
DEFAULT
100
AcDbVertex
100
AcDb2dVertex
 10
47.19110079894834
 20
4.802320236625049
 30
-0.0000000000000001
  0
VERTEX
  5
C5
330
BF
100
AcDbEntity
  8
DEFAULT
100
AcDbVertex
100
AcDb2dVertex
 10
47.18598080696327
 20
4.75203243843549
 30
-0.0000000000000001
  0
VERTEX
  5
C6
330
BF
100
AcDbEntity
  8
DEFAULT
100
AcDbVertex
100
AcDb2dVertex
 10
47.17965133027015
 20
4.70147013809063
 30
-0.0000000000000001
  0
VERTEX
  5
C7
330
BF
100
AcDbEntity
  8
DEFAULT
100
AcDbVertex
100
AcDb2dVertex
 10
47.1720889616239
 20
4.650672728245142
 30
-0.0000000000000001
  0
VERTEX
  5
C8
330
BF
100
AcDbEntity
  8
DEFAULT
100
AcDbVertex
100
AcDb2dVertex
 10
47.16327181051648
 20
4.599681284693279
 30
-0.0000000000000001
  0
VERTEX
  5
C9
330
BF
100
AcDbEntity
  8
DEFAULT
100
AcDbVertex
100
AcDb2dVertex
 10
47.15317963008761
 20
4.548538505987699
 30
-0.0000000000000001
  0
VERTEX
  5
CA
330
BF
100
AcDbEntity
  8
DEFAULT
100
AcDbVertex
100
AcDb2dVertex
 10
47.14179394229406
 20
4.497288642705816
 30
-0.0000000000000001
  0
VERTEX
  5
CB
330
BF
100
AcDbEntity
  8
DEFAULT
100
AcDbVertex
100
AcDb2dVertex
 10
47.12909816042399
 20
4.44597741627325
 30
-0.0000000000000001
  0
VERTEX
  5
CC
330
BF
100
AcDbEntity
  8
DEFAULT
100
AcDbVertex
100
AcDb2dVertex
 10
47.11507770801149
 20
4.394651927340183
 30
-0.0000000000000001
  0
VERTEX
  5
CD
330
BF
100
AcDbEntity
  8
DEFAULT
100
AcDbVertex
100
AcDb2dVertex
 10
47.09972013318265
 20
4.343360553798715
 30
0.0
  0
VERTEX
  5
CE
330
BF
100
AcDbEntity
  8
DEFAULT
100
AcDbVertex
100
AcDb2dVertex
 10
47.08301521745172
 20
4.292152838626382
 30
0.0
  0
VERTEX
  5
CF
330
BF
100
AcDbEntity
  8
DEFAULT
100
AcDbVertex
100
AcDb2dVertex
 10
47.06495507798234
 20
4.241079367842032
 30
0.0
  0
VERTEX
  5
D0
330
BF
100
AcDbEntity
  8
DEFAULT
100
AcDbVertex
100
AcDb2dVertex
 10
47.04553426233736
 20
4.190191638963875
 30
0.0
  0
VERTEX
  5
D1
330
BF
100
AcDbEntity
  8
DEFAULT
100
AcDbVertex
100
AcDb2dVertex
 10
47.02474983476041
 20
4.139541920464608
 30
0.0
  0
VERTEX
  5
D2
330
BF
100
AcDbEntity
  8
DEFAULT
100
AcDbVertex
100
AcDb2dVertex
 10
47.00260145306487
 20
4.089183102823333
 30
0.0
  0
VERTEX
  5
D3
330
BF
100
AcDbEntity
  8
DEFAULT
100
AcDbVertex
100
AcDb2dVertex
 10
46.97909143525051
 20
4.039168541877348
 30
0.0
  0
VERTEX
  5
D4
330
BF
100
AcDbEntity
  8
DEFAULT
100
AcDbVertex
100
AcDb2dVertex
 10
46.95422481502547
 20
3.989551895276786
 30
0.0
  0
VERTEX
  5
D5
330
BF
100
AcDbEntity
  8
DEFAULT
100
AcDbVertex
100
AcDb2dVertex
 10
46.92800938548046
 20
3.940386952940226
 30
0.0
  0
VERTEX
  5
D6
330
BF
100
AcDbEntity
  8
DEFAULT
100
AcDbVertex
100
AcDb2dVertex
 10
46.90045573024436
 20
3.89172746249786
 30
0.0
  0
VERTEX
  5
D7
330
BF
100
AcDbEntity
  8
DEFAULT
100
AcDbVertex
100
AcDb2dVertex
 10
46.87157724154226
 20
3.843626950789181
 30
0.0
  0
VERTEX
  5
D8
330
BF
100
AcDbEntity
  8
DEFAULT
100
AcDbVertex
100
AcDb2dVertex
 10
46.84139012468105
 20
3.796138542552678
 30
0.0
  0
VERTEX
  5
D9
330
BF
100
AcDbEntity
  8
DEFAULT
100
AcDbVertex
100
AcDb2dVertex
 10
46.80991338859941
 20
3.749314777504487
 30
0.0
  0
VERTEX
  5
DA
330
BF
100
AcDbEntity
  8
DEFAULT
100
AcDbVertex
100
AcDb2dVertex
 10
46.77716882223982
 20
3.703207427049827
 30
0.0
  0
VERTEX
  5
DB
330
BF
100
AcDbEntity
  8
DEFAULT
100
AcDbVertex
100
AcDb2dVertex
 10
46.7431809566265
 20
3.657867311904398
 30
0.0
  0
VERTEX
  5
DC
330
BF
100
AcDbEntity
  8
DEFAULT
100
AcDbVertex
100
AcDb2dVertex
 10
46.70797701266466
 20
3.613344121921682
 30
0.0
  0
VERTEX
  5
DD
330
BF
100
AcDbEntity
  8
DEFAULT
100
AcDbVertex
100
AcDb2dVertex
 10
46.67158683481057
 20
3.569686239425752
 30
0.0
  0
VERTEX
  5
DE
330
BF
100
AcDbEntity
  8
DEFAULT
100
AcDbVertex
100
AcDb2dVertex
 10
46.63404281089667
 20
3.526940567337162
 30
0.0
  0
VERTEX
  5
DF
330
BF
100
AcDbEntity
  8
DEFAULT
100
AcDbVertex
100
AcDb2dVertex
 10
46.59537977852971
 20
3.485152363351846
 30
0.0
  0
VERTEX
  5
E0
330
BF
100
AcDbEntity
  8
DEFAULT
100
AcDbVertex
100
AcDb2dVertex
 10
46.5556349186104
 20
3.444365081389584
 30
0.0
  0
VERTEX
  5
E1
330
BF
100
AcDbEntity
  8
DEFAULT
100
AcDbVertex
100
AcDb2dVertex
 10
46.51484763664814
 20
3.40462022147027
 30
0.0
  0
VERTEX
  5
E2
330
BF
100
AcDbEntity
  8
DEFAULT
100
AcDbVertex
100
AcDb2dVertex
 10
46.47305943266282
 20
3.365957189103326
 30
0.0
  0
VERTEX
  5
E3
330
BF
100
AcDbEntity
  8
DEFAULT
100
AcDbVertex
100
AcDb2dVertex
 10
46.43031376057423
 20
3.328413165189433
 30
0.0
  0
VERTEX
  5
E4
330
BF
100
AcDbEntity
  8
DEFAULT
100
AcDbVertex
100
AcDb2dVertex
 10
46.38665587807829
 20
3.292022987335336
 30
0.0
  0
VERTEX
  5
E5
330
BF
100
AcDbEntity
  8
DEFAULT
100
AcDbVertex
100
AcDb2dVertex
 10
46.34213268809557
 20
3.256819043373486
 30
0.0
  0
VERTEX
  5
E6
330
BF
100
AcDbEntity
  8
DEFAULT
100
AcDbVertex
100
AcDb2dVertex
 10
46.29679257295014
 20
3.222831177760165
 30
0.0
  0
VERTEX
  5
E7
330
BF
100
AcDbEntity
  8
DEFAULT
100
AcDbVertex
100
AcDb2dVertex
 10
46.25068522249547
 20
3.19008661140059
 30
0.0
  0
VERTEX
  5
E8
330
BF
100
AcDbEntity
  8
DEFAULT
100
AcDbVertex
100
AcDb2dVertex
 10
46.20386145744729
 20
3.15860987531896
 30
0.0
  0
VERTEX
  5
E9
330
BF
100
AcDbEntity
  8
DEFAULT
100
AcDbVertex
100
AcDb2dVertex
 10
46.15637304921078
 20
3.128422758457746
 30
0.0
  0
VERTEX
  5
EA
330
BF
100
AcDbEntity
  8
DEFAULT
100
AcDbVertex
100
AcDb2dVertex
 10
46.10827253750211
 20
3.099544269755645
 30
0.0
  0
VERTEX
  5
EB
330
BF
100
AcDbEntity
  8
DEFAULT
100
AcDbVertex
100
AcDb2dVertex
 10
46.05961304705975
 20
3.071990614519542
 30
0.0
  0
VERTEX
  5
EC
330
BF
100
AcDbEntity
  8
DEFAULT
100
AcDbVertex
100
AcDb2dVertex
 10
46.0104481047232
 20
3.04577518497454
 30
0.0
  0
VERTEX
  5
ED
330
BF
100
AcDbEntity
  8
DEFAULT
100
AcDbVertex
100
AcDb2dVertex
 10
45.96083145812264
 20
3.02090856474949
 30
0.0
  0
VERTEX
  5
EE
330
BF
100
AcDbEntity
  8
DEFAULT
100
AcDbVertex
100
AcDb2dVertex
 10
45.91081689717664
 20
2.997398546935139
 30
0.0
  0
VERTEX
  5
EF
330
BF
100
AcDbEntity
  8
DEFAULT
100
AcDbVertex
100
AcDb2dVertex
 10
45.86045807953538
 20
2.975250165239596
 30
0.0
  0
VERTEX
  5
F0
330
BF
100
AcDbEntity
  8
DEFAULT
100
AcDbVertex
100
AcDb2dVertex
 10
45.80980836103611
 20
2.95446573766265
 30
0.0
  0
VERTEX
  5
F1
330
BF
100
AcDbEntity
  8
DEFAULT
100
AcDbVertex
100
AcDb2dVertex
 10
45.75892063215795
 20
2.935044922017681
 30
0.0
  0
VERTEX
  5
F2
330
BF
100
AcDbEntity
  8
DEFAULT
100
AcDbVertex
100
AcDb2dVertex
 10
45.7078471613736
 20
2.916984782548307
 30
0.0
  0
VERTEX
  5
F3
330
BF
100
AcDbEntity
  8
DEFAULT
100
AcDbVertex
100
AcDb2dVertex
 10
45.65663944620127
 20
2.90027986681737
 30
0.0
  0
VERTEX
  5
F4
330
BF
100
AcDbEntity
  8
DEFAULT
100
AcDbVertex
100
AcDb2dVertex
 10
45.60534807265981
 20
2.884922291988529
 30
-0.0000000000000001
  0
VERTEX
  5
F5
330
BF
100
AcDbEntity
  8
DEFAULT
100
AcDbVertex
100
AcDb2dVertex
 10
45.55402258372673
 20
2.870901839576027
 30
-0.0000000000000001
  0
VERTEX
  5
F6
330
BF
100
AcDbEntity
  8
DEFAULT
100
AcDbVertex
100
AcDb2dVertex
 10
45.50271135729417
 20
2.85820605770596
 30
-0.0000000000000001
  0
VERTEX
  5
F7
330
BF
100
AcDbEntity
  8
DEFAULT
100
AcDbVertex
100
AcDb2dVertex
 10
45.45146149401229
 20
2.846820369912398
 30
-0.0000000000000001
  0
VERTEX
  5
F8
330
BF
100
AcDbEntity
  8
DEFAULT
100
AcDbVertex
100
AcDb2dVertex
 10
45.4003187153067
 20
2.836728189483535
 30
-0.0000000000000001
  0
VERTEX
  5
F9
330
BF
100
AcDbEntity
  8
DEFAULT
100
AcDbVertex
100
AcDb2dVertex
 10
45.34932727175485
 20
2.827911038376119
 30
-0.0000000000000001
  0
VERTEX
  5
FA
330
BF
100
AcDbEntity
  8
DEFAULT
100
AcDbVertex
100
AcDb2dVertex
 10
45.29852986190937
 20
2.820348669729864
 30
-0.0000000000000001
  0
VERTEX
  5
FB
330
BF
100
AcDbEntity
  8
DEFAULT
100
AcDbVertex
100
AcDb2dVertex
 10
45.24796756156451
 20
2.814019193036739
 30
-0.0000000000000001
  0
VERTEX
  5
FC
330
BF
100
AcDbEntity
  8
DEFAULT
100
AcDbVertex
100
AcDb2dVertex
 10
45.19767976337494
 20
2.808899201051667
 30
-0.0000000000000001
  0
VERTEX
  5
FD
330
BF
100
AcDbEntity
  8
DEFAULT
100
AcDbVertex
100
AcDb2dVertex
 10
45.14770412665669
 20
2.80496389757057
 30
-0.0000000000000001
  0
VERTEX
  5
FE
330
BF
100
AcDbEntity
  8
DEFAULT
100
AcDbVertex
100
AcDb2dVertex
 10
45.09807653712706
 20
2.802187225247527
 30
-0.0000000000000002
  0
VERTEX
  5
FF
330
BF
100
AcDbEntity
  8
DEFAULT
100
AcDbVertex
100
AcDb2dVertex
 10
45.04883107627555
 20
2.800541992674157
 30
-0.0000000000000002
  0
VERTEX
  5
100
330
BF
100
AcDbEntity
  8
DEFAULT
100
AcDbVertex
100
AcDb2dVertex
 10
45.00000000000001
 20
2.8
 30
-0.0000000000000002
  0
VERTEX
  5
101
330
BF
100
AcDbEntity
  8
DEFAULT
100
AcDbVertex
100
AcDb2dVertex
 10
44.95116892372448
 20
2.800541992674157
 30
-0.0000000000000002
  0
VERTEX
  5
102
330
BF
100
AcDbEntity
  8
DEFAULT
100
AcDbVertex
100
AcDb2dVertex
 10
44.90192346287296
 20
2.802187225247527
 30
-0.0000000000000002
  0
VERTEX
  5
103
330
BF
100
AcDbEntity
  8
DEFAULT
100
AcDbVertex
100
AcDb2dVertex
 10
44.85229587334332
 20
2.80496389757057
 30
-0.0000000000000001
  0
VERTEX
  5
104
330
BF
100
AcDbEntity
  8
DEFAULT
100
AcDbVertex
100
AcDb2dVertex
 10
44.80232023662505
 20
2.808899201051668
 30
-0.0000000000000001
  0
VERTEX
  5
105
330
BF
100
AcDbEntity
  8
DEFAULT
100
AcDbVertex
100
AcDb2dVertex
 10
44.75203243843549
 20
2.81401919303674
 30
-0.0000000000000001
  0
VERTEX
  5
106
330
BF
100
AcDbEntity
  8
DEFAULT
100
AcDbVertex
100
AcDb2dVertex
 10
44.70147013809063
 20
2.820348669729865
 30
-0.0000000000000001
  0
VERTEX
  5
107
330
BF
100
AcDbEntity
  8
DEFAULT
100
AcDbVertex
100
AcDb2dVertex
 10
44.65067272824515
 20
2.82791103837612
 30
-0.0000000000000001
  0
VERTEX
  5
108
330
BF
100
AcDbEntity
  8
DEFAULT
100
AcDbVertex
100
AcDb2dVertex
 10
44.59968128469328
 20
2.836728189483537
 30
-0.0000000000000001
  0
VERTEX
  5
109
330
BF
100
AcDbEntity
  8
DEFAULT
100
AcDbVertex
100
AcDb2dVertex
 10
44.54853850598771
 20
2.8468203699124
 30
-0.0000000000000001
  0
VERTEX
  5
10A
330
BF
100
AcDbEntity
  8
DEFAULT
100
AcDbVertex
100
AcDb2dVertex
 10
44.49728864270582
 20
2.858206057705962
 30
-0.0000000000000001
  0
VERTEX
  5
10B
330
BF
100
AcDbEntity
  8
DEFAULT
100
AcDbVertex
100
AcDb2dVertex
 10
44.44597741627325
 20
2.87090183957603
 30
-0.0000000000000001
  0
VERTEX
  5
10C
330
BF
100
AcDbEntity
  8
DEFAULT
100
AcDbVertex
100
AcDb2dVertex
 10
44.39465192734018
 20
2.884922291988532
 30
-0.0000000000000001
  0
VERTEX
  5
10D
330
BF
100
AcDbEntity
  8
DEFAULT
100
AcDbVertex
100
AcDb2dVertex
 10
44.34336055379872
 20
2.900279866817374
 30
0.0
  0
VERTEX
  5
10E
330
BF
100
AcDbEntity
  8
DEFAULT
100
AcDbVertex
100
AcDb2dVertex
 10
44.29215283862638
 20
2.91698478254831
 30
0.0
  0
VERTEX
  5
10F
330
BF
100
AcDbEntity
  8
DEFAULT
100
AcDbVertex
100
AcDb2dVertex
 10
44.24107936784203
 20
2.935044922017686
 30
0.0
  0
VERTEX
  5
110
330
BF
100
AcDbEntity
  8
DEFAULT
100
AcDbVertex
100
AcDb2dVertex
 10
44.19019163896387
 20
2.954465737662655
 30
0.0
  0
VERTEX
  5
111
330
BF
100
AcDbEntity
  8
DEFAULT
100
AcDbVertex
100
AcDb2dVertex
 10
44.13954192046461
 20
2.975250165239601
 30
0.0
  0
VERTEX
  5
112
330
BF
100
AcDbEntity
  8
DEFAULT
100
AcDbVertex
100
AcDb2dVertex
 10
44.08918310282333
 20
2.997398546935145
 30
0.0
  0
VERTEX
  5
113
330
BF
100
AcDbEntity
  8
DEFAULT
100
AcDbVertex
100
AcDb2dVertex
 10
44.03916854187735
 20
3.020908564749496
 30
0.0
  0
VERTEX
  5
114
330
BF
100
AcDbEntity
  8
DEFAULT
100
AcDbVertex
100
AcDb2dVertex
 10
43.98955189527678
 20
3.045775184974546
 30
0.0
  0
VERTEX
  5
115
330
BF
100
AcDbEntity
  8
DEFAULT
100
AcDbVertex
100
AcDb2dVertex
 10
43.94038695294022
 20
3.07199061451955
 30
0.0
  0
VERTEX
  5
116
330
BF
100
AcDbEntity
  8
DEFAULT
100
AcDbVertex
100
AcDb2dVertex
 10
43.89172746249785
 20
3.099544269755654
 30
0.0
  0
VERTEX
  5
117
330
BF
100
AcDbEntity
  8
DEFAULT
100
AcDbVertex
100
AcDb2dVertex
 10
43.84362695078917
 20
3.128422758457755
 30
0.0
  0
VERTEX
  5
118
330
BF
100
AcDbEntity
  8
DEFAULT
100
AcDbVertex
100
AcDb2dVertex
 10
43.79613854255267
 20
3.158609875318971
 30
0.0
  0
VERTEX
  5
119
330
BF
100
AcDbEntity
  8
DEFAULT
100
AcDbVertex
100
AcDb2dVertex
 10
43.74931477750449
 20
3.190086611400602
 30
0.0
  0
VERTEX
  5
11A
330
BF
100
AcDbEntity
  8
DEFAULT
100
AcDbVertex
100
AcDb2dVertex
 10
43.70320742704982
 20
3.222831177760177
 30
0.0
  0
VERTEX
  5
11B
330
BF
100
AcDbEntity
  8
DEFAULT
100
AcDbVertex
100
AcDb2dVertex
 10
43.65786731190438
 20
3.256819043373499
 30
0.0
  0
VERTEX
  5
11C
330
BF
100
AcDbEntity
  8
DEFAULT
100
AcDbVertex
100
AcDb2dVertex
 10
43.61334412192166
 20
3.29202298733535
 30
0.0
  0
VERTEX
  5
11D
330
BF
100
AcDbEntity
  8
DEFAULT
100
AcDbVertex
100
AcDb2dVertex
 10
43.56968623942576
 20
3.328413165189449
 30
0.0
  0
VERTEX
  5
11E
330
BF
100
AcDbEntity
  8
DEFAULT
100
AcDbVertex
100
AcDb2dVertex
 10
43.52694056733716
 20
3.365957189103343
 30
0.0
  0
VERTEX
  5
11F
330
BF
100
AcDbEntity
  8
DEFAULT
100
AcDbVertex
100
AcDb2dVertex
 10
43.48515236335184
 20
3.404620221470288
 30
0.0
  0
VERTEX
  5
120
330
BF
100
AcDbEntity
  8
DEFAULT
100
AcDbVertex
100
AcDb2dVertex
 10
43.44436508138958
 20
3.444365081389604
 30
0.0
  0
VERTEX
  5
121
330
BF
100
AcDbEntity
  8
DEFAULT
100
AcDbVertex
100
AcDb2dVertex
 10
43.40462022147027
 20
3.485152363351866
 30
0.0
  0
VERTEX
  5
122
330
BF
100
AcDbEntity
  8
DEFAULT
100
AcDbVertex
100
AcDb2dVertex
 10
43.36595718910333
 20
3.526940567337182
 30
0.0
  0
VERTEX
  5
123
330
BF
100
AcDbEntity
  8
DEFAULT
100
AcDbVertex
100
AcDb2dVertex
 10
43.32841316518944
 20
3.56968623942577
 30
0.0
  0
VERTEX
  5
124
330
BF
100
AcDbEntity
  8
DEFAULT
100
AcDbVertex
100
AcDb2dVertex
 10
43.29202298733532
 20
3.6133441219217
 30
0.0
  0
VERTEX
  5
125
330
BF
100
AcDbEntity
  8
DEFAULT
100
AcDbVertex
100
AcDb2dVertex
 10
43.25681904337349
 20
3.657867311904415
 30
0.0
  0
VERTEX
  5
126
330
BF
100
AcDbEntity
  8
DEFAULT
100
AcDbVertex
100
AcDb2dVertex
 10
43.22283117776016
 20
3.703207427049843
 30
0.0
  0
VERTEX
  5
127
330
BF
100
AcDbEntity
  8
DEFAULT
100
AcDbVertex
100
AcDb2dVertex
 10
43.19008661140058
 20
3.749314777504501
 30
0.0
  0
VERTEX
  5
128
330
BF
100
AcDbEntity
  8
DEFAULT
100
AcDbVertex
100
AcDb2dVertex
 10
43.15860987531894
 20
3.796138542552692
 30
0.0
  0
VERTEX
  5
129
330
BF
100
AcDbEntity
  8
DEFAULT
100
AcDbVertex
100
AcDb2dVertex
 10
43.12842275845774
 20
3.843626950789194
 30
0.0
  0
VERTEX
  5
12A
330
BF
100
AcDbEntity
  8
DEFAULT
100
AcDbVertex
100
AcDb2dVertex
 10
43.09954426975564
 20
3.891727462497872
 30
0.0
  0
VERTEX
  5
12B
330
BF
100
AcDbEntity
  8
DEFAULT
100
AcDbVertex
100
AcDb2dVertex
 10
43.07199061451955
 20
3.940386952940237
 30
0.0
  0
VERTEX
  5
12C
330
BF
100
AcDbEntity
  8
DEFAULT
100
AcDbVertex
100
AcDb2dVertex
 10
43.04577518497454
 20
3.989551895276797
 30
0.0
  0
VERTEX
  5
12D
330
BF
100
AcDbEntity
  8
DEFAULT
100
AcDbVertex
100
AcDb2dVertex
 10
43.0209085647495
 20
4.039168541877358
 30
0.0
  0
VERTEX
  5
12E
330
BF
100
AcDbEntity
  8
DEFAULT
100
AcDbVertex
100
AcDb2dVertex
 10
42.99739854693514
 20
4.089183102823342
 30
0.0
  0
VERTEX
  5
12F
330
BF
100
AcDbEntity
  8
DEFAULT
100
AcDbVertex
100
AcDb2dVertex
 10
42.97525016523961
 20
4.139541920464616
 30
0.0
  0
VERTEX
  5
130
330
BF
100
AcDbEntity
  8
DEFAULT
100
AcDbVertex
100
AcDb2dVertex
 10
42.95446573766265
 20
4.190191638963881
 30
0.0
  0
VERTEX
  5
131
330
BF
100
AcDbEntity
  8
DEFAULT
100
AcDbVertex
100
AcDb2dVertex
 10
42.93504492201769
 20
4.241079367842037
 30
0.0
  0
VERTEX
  5
132
330
BF
100
AcDbEntity
  8
DEFAULT
100
AcDbVertex
100
AcDb2dVertex
 10
42.91698478254831
 20
4.292152838626388
 30
0.0
  0
VERTEX
  5
133
330
BF
100
AcDbEntity
  8
DEFAULT
100
AcDbVertex
100
AcDb2dVertex
 10
42.90027986681737
 20
4.343360553798719
 30
0.0
  0
VERTEX
  5
134
330
BF
100
AcDbEntity
  8
DEFAULT
100
AcDbVertex
100
AcDb2dVertex
 10
42.88492229198853
 20
4.394651927340187
 30
-0.0000000000000001
  0
VERTEX
  5
135
330
BF
100
AcDbEntity
  8
DEFAULT
100
AcDbVertex
100
AcDb2dVertex
 10
42.87090183957604
 20
4.445977416273253
 30
-0.0000000000000001
  0
VERTEX
  5
136
330
BF
100
AcDbEntity
  8
DEFAULT
100
AcDbVertex
100
AcDb2dVertex
 10
42.85820605770596
 20
4.497288642705819
 30
-0.0000000000000001
  0
VERTEX
  5
137
330
BF
100
AcDbEntity
  8
DEFAULT
100
AcDbVertex
100
AcDb2dVertex
 10
42.8468203699124
 20
4.548538505987701
 30
-0.0000000000000001
  0
VERTEX
  5
138
330
BF
100
AcDbEntity
  8
DEFAULT
100
AcDbVertex
100
AcDb2dVertex
 10
42.83672818948352
 20
4.599681284693281
 30
-0.0000000000000001
  0
VERTEX
  5
139
330
BF
100
AcDbEntity
  8
DEFAULT
100
AcDbVertex
100
AcDb2dVertex
 10
42.82791103837612
 20
4.650672728245142
 30
-0.0000000000000001
  0
VERTEX
  5
13A
330
BF
100
AcDbEntity
  8
DEFAULT
100
AcDbVertex
100
AcDb2dVertex
 10
42.82034866972987
 20
4.70147013809063
 30
-0.0000000000000001
  0
VERTEX
  5
13B
330
BF
100
AcDbEntity
  8
DEFAULT
100
AcDbVertex
100
AcDb2dVertex
 10
42.81401919303674
 20
4.75203243843549
 30
-0.0000000000000001
  0
VERTEX
  5
13C
330
BF
100
AcDbEntity
  8
DEFAULT
100
AcDbVertex
100
AcDb2dVertex
 10
42.80889920105166
 20
4.802320236625047
 30
-0.0000000000000001
  0
VERTEX
  5
13D
330
BF
100
AcDbEntity
  8
DEFAULT
100
AcDbVertex
100
AcDb2dVertex
 10
42.80496389757058
 20
4.852295873343309
 30
-0.0000000000000001
  0
VERTEX
  5
13E
330
BF
100
AcDbEntity
  8
DEFAULT
100
AcDbVertex
100
AcDb2dVertex
 10
42.80218722524753
 20
4.901923462872952
 30
-0.0000000000000002
  0
VERTEX
  5
13F
330
BF
100
AcDbEntity
  8
DEFAULT
100
AcDbVertex
100
AcDb2dVertex
 10
42.80054199267417
 20
4.951168923724468
 30
-0.0000000000000002
  0
VERTEX
  5
140
330
BF
100
AcDbEntity
  8
DEFAULT
100
AcDbVertex
100
AcDb2dVertex
 10
42.8
 20
4.999999999999999
 30
-0.0000000000000002
  0
SEQEND
  5
141
330
BF
100
AcDbEntity
  8
DEFAULT
  0
POLYLINE
  5
142
330
1F
100
AcDbEntity
  8
DEFAULT
100
AcDb2dPolyline
 66
     1
 10
0.0
 20
0.0
 30
-0.0000000000000002
  0
VERTEX
  5
143
330
142
100
AcDbEntity
  8
DEFAULT
100
AcDbVertex
100
AcDb2dVertex
 10
42.8
 20
35.0
 30
-0.0000000000000002
  0
VERTEX
  5
144
330
142
100
AcDbEntity
  8
DEFAULT
100
AcDbVertex
100
AcDb2dVertex
 10
42.80054199267417
 20
35.04883107627553
 30
-0.0000000000000002
  0
VERTEX
  5
145
330
142
100
AcDbEntity
  8
DEFAULT
100
AcDbVertex
100
AcDb2dVertex
 10
42.80218722524753
 20
35.09807653712706
 30
-0.0000000000000002
  0
VERTEX
  5
146
330
142
100
AcDbEntity
  8
DEFAULT
100
AcDbVertex
100
AcDb2dVertex
 10
42.80496389757058
 20
35.14770412665669
 30
-0.0000000000000001
  0
VERTEX
  5
147
330
142
100
AcDbEntity
  8
DEFAULT
100
AcDbVertex
100
AcDb2dVertex
 10
42.80889920105166
 20
35.19767976337496
 30
-0.0000000000000001
  0
VERTEX
  5
148
330
142
100
AcDbEntity
  8
DEFAULT
100
AcDbVertex
100
AcDb2dVertex
 10
42.81401919303674
 20
35.24796756156452
 30
-0.0000000000000001
  0
VERTEX
  5
149
330
142
100
AcDbEntity
  8
DEFAULT
100
AcDbVertex
100
AcDb2dVertex
 10
42.82034866972987
 20
35.29852986190938
 30
-0.0000000000000001
  0
VERTEX
  5
14A
330
142
100
AcDbEntity
  8
DEFAULT
100
AcDbVertex
100
AcDb2dVertex
 10
42.82791103837612
 20
35.34932727175486
 30
-0.0000000000000001
  0
VERTEX
  5
14B
330
142
100
AcDbEntity
  8
DEFAULT
100
AcDbVertex
100
AcDb2dVertex
 10
42.83672818948352
 20
35.40031871530672
 30
-0.0000000000000001
  0
VERTEX
  5
14C
330
142
100
AcDbEntity
  8
DEFAULT
100
AcDbVertex
100
AcDb2dVertex
 10
42.8468203699124
 20
35.45146149401231
 30
-0.0000000000000001
  0
VERTEX
  5
14D
330
142
100
AcDbEntity
  8
DEFAULT
100
AcDbVertex
100
AcDb2dVertex
 10
42.85820605770596
 20
35.5027113572942
 30
-0.0000000000000001
  0
VERTEX
  5
14E
330
142
100
AcDbEntity
  8
DEFAULT
100
AcDbVertex
100
AcDb2dVertex
 10
42.87090183957604
 20
35.55402258372675
 30
-0.0000000000000001
  0
VERTEX
  5
14F
330
142
100
AcDbEntity
  8
DEFAULT
100
AcDbVertex
100
AcDb2dVertex
 10
42.88492229198853
 20
35.60534807265981
 30
-0.0000000000000001
  0
VERTEX
  5
150
330
142
100
AcDbEntity
  8
DEFAULT
100
AcDbVertex
100
AcDb2dVertex
 10
42.90027986681737
 20
35.65663944620128
 30
0.0
  0
VERTEX
  5
151
330
142
100
AcDbEntity
  8
DEFAULT
100
AcDbVertex
100
AcDb2dVertex
 10
42.91698478254831
 20
35.70784716137362
 30
0.0
  0
VERTEX
  5
152
330
142
100
AcDbEntity
  8
DEFAULT
100
AcDbVertex
100
AcDb2dVertex
 10
42.93504492201769
 20
35.75892063215797
 30
0.0
  0
VERTEX
  5
153
330
142
100
AcDbEntity
  8
DEFAULT
100
AcDbVertex
100
AcDb2dVertex
 10
42.95446573766265
 20
35.80980836103611
 30
0.0
  0
VERTEX
  5
154
330
142
100
AcDbEntity
  8
DEFAULT
100
AcDbVertex
100
AcDb2dVertex
 10
42.97525016523961
 20
35.86045807953538
 30
0.0
  0
VERTEX
  5
155
330
142
100
AcDbEntity
  8
DEFAULT
100
AcDbVertex
100
AcDb2dVertex
 10
42.99739854693514
 20
35.91081689717667
 30
0.0
  0
VERTEX
  5
156
330
142
100
AcDbEntity
  8
DEFAULT
100
AcDbVertex
100
AcDb2dVertex
 10
43.0209085647495
 20
35.96083145812264
 30
0.0
  0
VERTEX
  5
157
330
142
100
AcDbEntity
  8
DEFAULT
100
AcDbVertex
100
AcDb2dVertex
 10
43.04577518497454
 20
36.0104481047232
 30
0.0
  0
VERTEX
  5
158
330
142
100
AcDbEntity
  8
DEFAULT
100
AcDbVertex
100
AcDb2dVertex
 10
43.07199061451955
 20
36.05961304705976
 30
0.0
  0
VERTEX
  5
159
330
142
100
AcDbEntity
  8
DEFAULT
100
AcDbVertex
100
AcDb2dVertex
 10
43.09954426975564
 20
36.10827253750212
 30
0.0
  0
VERTEX
  5
15A
330
142
100
AcDbEntity
  8
DEFAULT
100
AcDbVertex
100
AcDb2dVertex
 10
43.12842275845774
 20
36.15637304921079
 30
0.0
  0
VERTEX
  5
15B
330
142
100
AcDbEntity
  8
DEFAULT
100
AcDbVertex
100
AcDb2dVertex
 10
43.15860987531894
 20
36.2038614574473
 30
0.0
  0
VERTEX
  5
15C
330
142
100
AcDbEntity
  8
DEFAULT
100
AcDbVertex
100
AcDb2dVertex
 10
43.19008661140058
 20
36.25068522249549
 30
0.0
  0
VERTEX
  5
15D
330
142
100
AcDbEntity
  8
DEFAULT
100
AcDbVertex
100
AcDb2dVertex
 10
43.22283117776016
 20
36.29679257295015
 30
0.0
  0
VERTEX
  5
15E
330
142
100
AcDbEntity
  8
DEFAULT
100
AcDbVertex
100
AcDb2dVertex
 10
43.25681904337349
 20
36.34213268809558
 30
0.0
  0
VERTEX
  5
15F
330
142
100
AcDbEntity
  8
DEFAULT
100
AcDbVertex
100
AcDb2dVertex
 10
43.29202298733532
 20
36.38665587807829
 30
0.0
  0
VERTEX
  5
160
330
142
100
AcDbEntity
  8
DEFAULT
100
AcDbVertex
100
AcDb2dVertex
 10
43.32841316518944
 20
36.43031376057422
 30
0.0
  0
VERTEX
  5
161
330
142
100
AcDbEntity
  8
DEFAULT
100
AcDbVertex
100
AcDb2dVertex
 10
43.36595718910333
 20
36.47305943266282
 30
0.0
  0
VERTEX
  5
162
330
142
100
AcDbEntity
  8
DEFAULT
100
AcDbVertex
100
AcDb2dVertex
 10
43.40462022147027
 20
36.51484763664813
 30
0.0
  0
VERTEX
  5
163
330
142
100
AcDbEntity
  8
DEFAULT
100
AcDbVertex
100
AcDb2dVertex
 10
43.44436508138958
 20
36.55563491861039
 30
0.0
  0
VERTEX
  5
164
330
142
100
AcDbEntity
  8
DEFAULT
100
AcDbVertex
100
AcDb2dVertex
 10
43.48515236335184
 20
36.5953797785297
 30
0.0
  0
VERTEX
  5
165
330
142
100
AcDbEntity
  8
DEFAULT
100
AcDbVertex
100
AcDb2dVertex
 10
43.52694056733716
 20
36.63404281089666
 30
0.0
  0
VERTEX
  5
166
330
142
100
AcDbEntity
  8
DEFAULT
100
AcDbVertex
100
AcDb2dVertex
 10
43.56968623942576
 20
36.67158683481055
 30
0.0
  0
VERTEX
  5
167
330
142
100
AcDbEntity
  8
DEFAULT
100
AcDbVertex
100
AcDb2dVertex
 10
43.61334412192166
 20
36.70797701266464
 30
0.0
  0
VERTEX
  5
168
330
142
100
AcDbEntity
  8
DEFAULT
100
AcDbVertex
100
AcDb2dVertex
 10
43.65786731190438
 20
36.74318095662649
 30
0.0
  0
VERTEX
  5
169
330
142
100
AcDbEntity
  8
DEFAULT
100
AcDbVertex
100
AcDb2dVertex
 10
43.70320742704982
 20
36.77716882223982
 30
0.0
  0
VERTEX
  5
16A
330
142
100
AcDbEntity
  8
DEFAULT
100
AcDbVertex
100
AcDb2dVertex
 10
43.74931477750449
 20
36.8099133885994
 30
0.0
  0
VERTEX
  5
16B
330
142
100
AcDbEntity
  8
DEFAULT
100
AcDbVertex
100
AcDb2dVertex
 10
43.79613854255267
 20
36.84139012468103
 30
0.0
  0
VERTEX
  5
16C
330
142
100
AcDbEntity
  8
DEFAULT
100
AcDbVertex
100
AcDb2dVertex
 10
43.84362695078917
 20
36.87157724154224
 30
0.0
  0
VERTEX
  5
16D
330
142
100
AcDbEntity
  8
DEFAULT
100
AcDbVertex
100
AcDb2dVertex
 10
43.89172746249785
 20
36.90045573024435
 30
0.0
  0
VERTEX
  5
16E
330
142
100
AcDbEntity
  8
DEFAULT
100
AcDbVertex
100
AcDb2dVertex
 10
43.94038695294022
 20
36.92800938548045
 30
0.0
  0
VERTEX
  5
16F
330
142
100
AcDbEntity
  8
DEFAULT
100
AcDbVertex
100
AcDb2dVertex
 10
43.98955189527678
 20
36.95422481502545
 30
0.0
  0
VERTEX
  5
170
330
142
100
AcDbEntity
  8
DEFAULT
100
AcDbVertex
100
AcDb2dVertex
 10
44.03916854187735
 20
36.97909143525051
 30
0.0
  0
VERTEX
  5
171
330
142
100
AcDbEntity
  8
DEFAULT
100
AcDbVertex
100
AcDb2dVertex
 10
44.08918310282333
 20
37.00260145306486
 30
0.0
  0
VERTEX
  5
172
330
142
100
AcDbEntity
  8
DEFAULT
100
AcDbVertex
100
AcDb2dVertex
 10
44.13954192046461
 20
37.0247498347604
 30
0.0
  0
VERTEX
  5
173
330
142
100
AcDbEntity
  8
DEFAULT
100
AcDbVertex
100
AcDb2dVertex
 10
44.19019163896387
 20
37.04553426233734
 30
0.0
  0
VERTEX
  5
174
330
142
100
AcDbEntity
  8
DEFAULT
100
AcDbVertex
100
AcDb2dVertex
 10
44.24107936784203
 20
37.06495507798232
 30
0.0
  0
VERTEX
  5
175
330
142
100
AcDbEntity
  8
DEFAULT
100
AcDbVertex
100
AcDb2dVertex
 10
44.29215283862638
 20
37.0830152174517
 30
0.0
  0
VERTEX
  5
176
330
142
100
AcDbEntity
  8
DEFAULT
100
AcDbVertex
100
AcDb2dVertex
 10
44.34336055379872
 20
37.09972013318264
 30
0.0
  0
VERTEX
  5
177
330
142
100
AcDbEntity
  8
DEFAULT
100
AcDbVertex
100
AcDb2dVertex
 10
44.39465192734018
 20
37.11507770801146
 30
-0.0000000000000001
  0
VERTEX
  5
178
330
142
100
AcDbEntity
  8
DEFAULT
100
AcDbVertex
100
AcDb2dVertex
 10
44.44597741627325
 20
37.12909816042398
 30
-0.0000000000000001
  0
VERTEX
  5
179
330
142
100
AcDbEntity
  8
DEFAULT
100
AcDbVertex
100
AcDb2dVertex
 10
44.49728864270582
 20
37.14179394229405
 30
-0.0000000000000001
  0
VERTEX
  5
17A
330
142
100
AcDbEntity
  8
DEFAULT
100
AcDbVertex
100
AcDb2dVertex
 10
44.54853850598771
 20
37.15317963008761
 30
-0.0000000000000001
  0
VERTEX
  5
17B
330
142
100
AcDbEntity
  8
DEFAULT
100
AcDbVertex
100
AcDb2dVertex
 10
44.59968128469328
 20
37.16327181051646
 30
-0.0000000000000001
  0
VERTEX
  5
17C
330
142
100
AcDbEntity
  8
DEFAULT
100
AcDbVertex
100
AcDb2dVertex
 10
44.65067272824515
 20
37.17208896162388
 30
-0.0000000000000001
  0
VERTEX
  5
17D
330
142
100
AcDbEntity
  8
DEFAULT
100
AcDbVertex
100
AcDb2dVertex
 10
44.70147013809063
 20
37.17965133027015
 30
-0.0000000000000001
  0
VERTEX
  5
17E
330
142
100
AcDbEntity
  8
DEFAULT
100
AcDbVertex
100
AcDb2dVertex
 10
44.75203243843549
 20
37.18598080696327
 30
-0.0000000000000001
  0
VERTEX
  5
17F
330
142
100
AcDbEntity
  8
DEFAULT
100
AcDbVertex
100
AcDb2dVertex
 10
44.80232023662505
 20
37.19110079894834
 30
-0.0000000000000001
  0
VERTEX
  5
180
330
142
100
AcDbEntity
  8
DEFAULT
100
AcDbVertex
100
AcDb2dVertex
 10
44.85229587334332
 20
37.19503610242943
 30
-0.0000000000000001
  0
VERTEX
  5
181
330
142
100
AcDbEntity
  8
DEFAULT
100
AcDbVertex
100
AcDb2dVertex
 10
44.90192346287296
 20
37.19781277475248
 30
-0.0000000000000002
  0
VERTEX
  5
182
330
142
100
AcDbEntity
  8
DEFAULT
100
AcDbVertex
100
AcDb2dVertex
 10
44.95116892372448
 20
37.19945800732585
 30
-0.0000000000000002
  0
VERTEX
  5
183
330
142
100
AcDbEntity
  8
DEFAULT
100
AcDbVertex
100
AcDb2dVertex
 10
45.00000000000001
 20
37.2
 30
-0.0000000000000002
  0
VERTEX
  5
184
330
142
100
AcDbEntity
  8
DEFAULT
100
AcDbVertex
100
AcDb2dVertex
 10
45.04883107627555
 20
37.19945800732585
 30
-0.0000000000000002
  0
VERTEX
  5
185
330
142
100
AcDbEntity
  8
DEFAULT
100
AcDbVertex
100
AcDb2dVertex
 10
45.09807653712706
 20
37.19781277475248
 30
-0.0000000000000002
  0
VERTEX
  5
186
330
142
100
AcDbEntity
  8
DEFAULT
100
AcDbVertex
100
AcDb2dVertex
 10
45.14770412665669
 20
37.19503610242943
 30
-0.0000000000000001
  0
VERTEX
  5
187
330
142
100
AcDbEntity
  8
DEFAULT
100
AcDbVertex
100
AcDb2dVertex
 10
45.19767976337494
 20
37.19110079894833
 30
-0.0000000000000001
  0
VERTEX
  5
188
330
142
100
AcDbEntity
  8
DEFAULT
100
AcDbVertex
100
AcDb2dVertex
 10
45.24796756156451
 20
37.18598080696327
 30
-0.0000000000000001
  0
VERTEX
  5
189
330
142
100
AcDbEntity
  8
DEFAULT
100
AcDbVertex
100
AcDb2dVertex
 10
45.29852986190937
 20
37.17965133027014
 30
-0.0000000000000001
  0
VERTEX
  5
18A
330
142
100
AcDbEntity
  8
DEFAULT
100
AcDbVertex
100
AcDb2dVertex
 10
45.34932727175485
 20
37.17208896162388
 30
-0.0000000000000001
  0
VERTEX
  5
18B
330
142
100
AcDbEntity
  8
DEFAULT
100
AcDbVertex
100
AcDb2dVertex
 10
45.4003187153067
 20
37.16327181051646
 30
-0.0000000000000001
  0
VERTEX
  5
18C
330
142
100
AcDbEntity
  8
DEFAULT
100
AcDbVertex
100
AcDb2dVertex
 10
45.45146149401229
 20
37.15317963008761
 30
-0.0000000000000001
  0
VERTEX
  5
18D
330
142
100
AcDbEntity
  8
DEFAULT
100
AcDbVertex
100
AcDb2dVertex
 10
45.50271135729417
 20
37.14179394229405
 30
-0.0000000000000001
  0
VERTEX
  5
18E
330
142
100
AcDbEntity
  8
DEFAULT
100
AcDbVertex
100
AcDb2dVertex
 10
45.55402258372673
 20
37.12909816042397
 30
-0.0000000000000001
  0
VERTEX
  5
18F
330
142
100
AcDbEntity
  8
DEFAULT
100
AcDbVertex
100
AcDb2dVertex
 10
45.60534807265981
 20
37.11507770801147
 30
-0.0000000000000001
  0
VERTEX
  5
190
330
142
100
AcDbEntity
  8
DEFAULT
100
AcDbVertex
100
AcDb2dVertex
 10
45.65663944620127
 20
37.09972013318263
 30
0.0
  0
VERTEX
  5
191
330
142
100
AcDbEntity
  8
DEFAULT
100
AcDbVertex
100
AcDb2dVertex
 10
45.7078471613736
 20
37.0830152174517
 30
0.0
  0
VERTEX
  5
192
330
142
100
AcDbEntity
  8
DEFAULT
100
AcDbVertex
100
AcDb2dVertex
 10
45.75892063215795
 20
37.06495507798232
 30
0.0
  0
VERTEX
  5
193
330
142
100
AcDbEntity
  8
DEFAULT
100
AcDbVertex
100
AcDb2dVertex
 10
45.8098083610361
 20
37.04553426233735
 30
0.0
  0
VERTEX
  5
194
330
142
100
AcDbEntity
  8
DEFAULT
100
AcDbVertex
100
AcDb2dVertex
 10
45.86045807953538
 20
37.02474983476041
 30
0.0
  0
VERTEX
  5
195
330
142
100
AcDbEntity
  8
DEFAULT
100
AcDbVertex
100
AcDb2dVertex
 10
45.91081689717664
 20
37.00260145306487
 30
0.0
  0
VERTEX
  5
196
330
142
100
AcDbEntity
  8
DEFAULT
100
AcDbVertex
100
AcDb2dVertex
 10
45.96083145812264
 20
36.97909143525052
 30
0.0
  0
VERTEX
  5
197
330
142
100
AcDbEntity
  8
DEFAULT
100
AcDbVertex
100
AcDb2dVertex
 10
46.0104481047232
 20
36.95422481502546
 30
0.0
  0
VERTEX
  5
198
330
142
100
AcDbEntity
  8
DEFAULT
100
AcDbVertex
100
AcDb2dVertex
 10
46.05961304705975
 20
36.92800938548046
 30
0.0
  0
VERTEX
  5
199
330
142
100
AcDbEntity
  8
DEFAULT
100
AcDbVertex
100
AcDb2dVertex
 10
46.10827253750211
 20
36.90045573024435
 30
0.0
  0
VERTEX
  5
19A
330
142
100
AcDbEntity
  8
DEFAULT
100
AcDbVertex
100
AcDb2dVertex
 10
46.15637304921078
 20
36.87157724154224
 30
0.0
  0
VERTEX
  5
19B
330
142
100
AcDbEntity
  8
DEFAULT
100
AcDbVertex
100
AcDb2dVertex
 10
46.20386145744729
 20
36.84139012468103
 30
0.0
  0
VERTEX
  5
19C
330
142
100
AcDbEntity
  8
DEFAULT
100
AcDbVertex
100
AcDb2dVertex
 10
46.25068522249547
 20
36.80991338859939
 30
0.0
  0
VERTEX
  5
19D
330
142
100
AcDbEntity
  8
DEFAULT
100
AcDbVertex
100
AcDb2dVertex
 10
46.29679257295014
 20
36.77716882223983
 30
0.0
  0
VERTEX
  5
19E
330
142
100
AcDbEntity
  8
DEFAULT
100
AcDbVertex
100
AcDb2dVertex
 10
46.34213268809557
 20
36.7431809566265
 30
0.0
  0
VERTEX
  5
19F
330
142
100
AcDbEntity
  8
DEFAULT
100
AcDbVertex
100
AcDb2dVertex
 10
46.38665587807829
 20
36.70797701266465
 30
0.0
  0
VERTEX
  5
1A0
330
142
100
AcDbEntity
  8
DEFAULT
100
AcDbVertex
100
AcDb2dVertex
 10
46.43031376057422
 20
36.67158683481056
 30
0.0
  0
VERTEX
  5
1A1
330
142
100
AcDbEntity
  8
DEFAULT
100
AcDbVertex
100
AcDb2dVertex
 10
46.47305943266281
 20
36.63404281089667
 30
0.0
  0
VERTEX
  5
1A2
330
142
100
AcDbEntity
  8
DEFAULT
100
AcDbVertex
100
AcDb2dVertex
 10
46.51484763664813
 20
36.59537977852973
 30
0.0
  0
VERTEX
  5
1A3
330
142
100
AcDbEntity
  8
DEFAULT
100
AcDbVertex
100
AcDb2dVertex
 10
46.55563491861039
 20
36.55563491861042
 30
0.0
  0
VERTEX
  5
1A4
330
142
100
AcDbEntity
  8
DEFAULT
100
AcDbVertex
100
AcDb2dVertex
 10
46.59537977852971
 20
36.51484763664816
 30
0.0
  0
VERTEX
  5
1A5
330
142
100
AcDbEntity
  8
DEFAULT
100
AcDbVertex
100
AcDb2dVertex
 10
46.63404281089666
 20
36.47305943266284
 30
0.0
  0
VERTEX
  5
1A6
330
142
100
AcDbEntity
  8
DEFAULT
100
AcDbVertex
100
AcDb2dVertex
 10
46.67158683481055
 20
36.43031376057425
 30
0.0
  0
VERTEX
  5
1A7
330
142
100
AcDbEntity
  8
DEFAULT
100
AcDbVertex
100
AcDb2dVertex
 10
46.70797701266464
 20
36.38665587807832
 30
0.0
  0
VERTEX
  5
1A8
330
142
100
AcDbEntity
  8
DEFAULT
100
AcDbVertex
100
AcDb2dVertex
 10
46.74318095662648
 20
36.3421326880956
 30
0.0
  0
VERTEX
  5
1A9
330
142
100
AcDbEntity
  8
DEFAULT
100
AcDbVertex
100
AcDb2dVertex
 10
46.77716882223981
 20
36.29679257295017
 30
0.0
  0
VERTEX
  5
1AA
330
142
100
AcDbEntity
  8
DEFAULT
100
AcDbVertex
100
AcDb2dVertex
 10
46.8099133885994
 20
36.25068522249552
 30
0.0
  0
VERTEX
  5
1AB
330
142
100
AcDbEntity
  8
DEFAULT
100
AcDbVertex
100
AcDb2dVertex
 10
46.84139012468103
 20
36.20386145744733
 30
0.0
  0
VERTEX
  5
1AC
330
142
100
AcDbEntity
  8
DEFAULT
100
AcDbVertex
100
AcDb2dVertex
 10
46.87157724154225
 20
36.15637304921082
 30
0.0
  0
VERTEX
  5
1AD
330
142
100
AcDbEntity
  8
DEFAULT
100
AcDbVertex
100
AcDb2dVertex
 10
46.90045573024435
 20
36.10827253750215
 30
0.0
  0
VERTEX
  5
1AE
330
142
100
AcDbEntity
  8
DEFAULT
100
AcDbVertex
100
AcDb2dVertex
 10
46.92800938548045
 20
36.05961304705978
 30
0.0
  0
VERTEX
  5
1AF
330
142
100
AcDbEntity
  8
DEFAULT
100
AcDbVertex
100
AcDb2dVertex
 10
46.95422481502546
 20
36.01044810472322
 30
0.0
  0
VERTEX
  5
1B0
330
142
100
AcDbEntity
  8
DEFAULT
100
AcDbVertex
100
AcDb2dVertex
 10
46.97909143525051
 20
35.96083145812266
 30
0.0
  0
VERTEX
  5
1B1
330
142
100
AcDbEntity
  8
DEFAULT
100
AcDbVertex
100
AcDb2dVertex
 10
47.00260145306487
 20
35.91081689717669
 30
0.0
  0
VERTEX
  5
1B2
330
142
100
AcDbEntity
  8
DEFAULT
100
AcDbVertex
100
AcDb2dVertex
 10
47.02474983476041
 20
35.86045807953541
 30
0.0
  0
VERTEX
  5
1B3
330
142
100
AcDbEntity
  8
DEFAULT
100
AcDbVertex
100
AcDb2dVertex
 10
47.04553426233736
 20
35.80980836103613
 30
0.0
  0
VERTEX
  5
1B4
330
142
100
AcDbEntity
  8
DEFAULT
100
AcDbVertex
100
AcDb2dVertex
 10
47.06495507798233
 20
35.75892063215797
 30
0.0
  0
VERTEX
  5
1B5
330
142
100
AcDbEntity
  8
DEFAULT
100
AcDbVertex
100
AcDb2dVertex
 10
47.0830152174517
 20
35.70784716137363
 30
0.0
  0
VERTEX
  5
1B6
330
142
100
AcDbEntity
  8
DEFAULT
100
AcDbVertex
100
AcDb2dVertex
 10
47.09972013318264
 20
35.6566394462013
 30
0.0
  0
VERTEX
  5
1B7
330
142
100
AcDbEntity
  8
DEFAULT
100
AcDbVertex
100
AcDb2dVertex
 10
47.11507770801148
 20
35.60534807265983
 30
-0.0000000000000001
  0
VERTEX
  5
1B8
330
142
100
AcDbEntity
  8
DEFAULT
100
AcDbVertex
100
AcDb2dVertex
 10
47.12909816042398
 20
35.55402258372676
 30
-0.0000000000000001
  0
VERTEX
  5
1B9
330
142
100
AcDbEntity
  8
DEFAULT
100
AcDbVertex
100
AcDb2dVertex
 10
47.14179394229406
 20
35.5027113572942
 30
-0.0000000000000001
  0
VERTEX
  5
1BA
330
142
100
AcDbEntity
  8
DEFAULT
100
AcDbVertex
100
AcDb2dVertex
 10
47.15317963008761
 20
35.45146149401231
 30
-0.0000000000000001
  0
VERTEX
  5
1BB
330
142
100
AcDbEntity
  8
DEFAULT
100
AcDbVertex
100
AcDb2dVertex
 10
47.16327181051648
 20
35.40031871530672
 30
-0.0000000000000001
  0
VERTEX
  5
1BC
330
142
100
AcDbEntity
  8
DEFAULT
100
AcDbVertex
100
AcDb2dVertex
 10
47.1720889616239
 20
35.34932727175487
 30
-0.0000000000000001
  0
VERTEX
  5
1BD
330
142
100
AcDbEntity
  8
DEFAULT
100
AcDbVertex
100
AcDb2dVertex
 10
47.17965133027015
 20
35.29852986190939
 30
-0.0000000000000001
  0
VERTEX
  5
1BE
330
142
100
AcDbEntity
  8
DEFAULT
100
AcDbVertex
100
AcDb2dVertex
 10
47.18598080696327
 20
35.24796756156452
 30
-0.0000000000000001
  0
VERTEX
  5
1BF
330
142
100
AcDbEntity
  8
DEFAULT
100
AcDbVertex
100
AcDb2dVertex
 10
47.19110079894834
 20
35.19767976337496
 30
-0.0000000000000001
  0
VERTEX
  5
1C0
330
142
100
AcDbEntity
  8
DEFAULT
100
AcDbVertex
100
AcDb2dVertex
 10
47.19503610242943
 20
35.14770412665669
 30
-0.0000000000000001
  0
VERTEX
  5
1C1
330
142
100
AcDbEntity
  8
DEFAULT
100
AcDbVertex
100
AcDb2dVertex
 10
47.19781277475248
 20
35.09807653712706
 30
-0.0000000000000002
  0
VERTEX
  5
1C2
330
142
100
AcDbEntity
  8
DEFAULT
100
AcDbVertex
100
AcDb2dVertex
 10
47.19945800732585
 20
35.04883107627553
 30
-0.0000000000000002
  0
VERTEX
  5
1C3
330
142
100
AcDbEntity
  8
DEFAULT
100
AcDbVertex
100
AcDb2dVertex
 10
47.2
 20
35.0
 30
-0.0000000000000002
  0
SEQEND
  5
1C4
330
142
100
AcDbEntity
  8
DEFAULT
  0
POLYLINE
  5
1C5
330
1F
100
AcDbEntity
  8
DEFAULT
100
AcDb2dPolyline
 66
     1
 10
0.0
 20
0.0
 30
-0.0000000000000002
  0
VERTEX
  5
1C6
330
1C5
100
AcDbEntity
  8
DEFAULT
100
AcDbVertex
100
AcDb2dVertex
 10
47.2
 20
35.0
 30
-0.0000000000000002
  0
VERTEX
  5
1C7
330
1C5
100
AcDbEntity
  8
DEFAULT
100
AcDbVertex
100
AcDb2dVertex
 10
47.19945800732585
 20
34.95116892372447
 30
-0.0000000000000002
  0
VERTEX
  5
1C8
330
1C5
100
AcDbEntity
  8
DEFAULT
100
AcDbVertex
100
AcDb2dVertex
 10
47.19781277475248
 20
34.90192346287295
 30
-0.0000000000000002
  0
VERTEX
  5
1C9
330
1C5
100
AcDbEntity
  8
DEFAULT
100
AcDbVertex
100
AcDb2dVertex
 10
47.19503610242943
 20
34.85229587334332
 30
-0.0000000000000001
  0
VERTEX
  5
1CA
330
1C5
100
AcDbEntity
  8
DEFAULT
100
AcDbVertex
100
AcDb2dVertex
 10
47.19110079894834
 20
34.80232023662506
 30
-0.0000000000000001
  0
VERTEX
  5
1CB
330
1C5
100
AcDbEntity
  8
DEFAULT
100
AcDbVertex
100
AcDb2dVertex
 10
47.18598080696327
 20
34.7520324384355
 30
-0.0000000000000001
  0
VERTEX
  5
1CC
330
1C5
100
AcDbEntity
  8
DEFAULT
100
AcDbVertex
100
AcDb2dVertex
 10
47.17965133027015
 20
34.70147013809063
 30
-0.0000000000000001
  0
VERTEX
  5
1CD
330
1C5
100
AcDbEntity
  8
DEFAULT
100
AcDbVertex
100
AcDb2dVertex
 10
47.1720889616239
 20
34.65067272824515
 30
-0.0000000000000001
  0
VERTEX
  5
1CE
330
1C5
100
AcDbEntity
  8
DEFAULT
100
AcDbVertex
100
AcDb2dVertex
 10
47.16327181051648
 20
34.59968128469328
 30
-0.0000000000000001
  0
VERTEX
  5
1CF
330
1C5
100
AcDbEntity
  8
DEFAULT
100
AcDbVertex
100
AcDb2dVertex
 10
47.15317963008761
 20
34.54853850598771
 30
-0.0000000000000001
  0
VERTEX
  5
1D0
330
1C5
100
AcDbEntity
  8
DEFAULT
100
AcDbVertex
100
AcDb2dVertex
 10
47.14179394229406
 20
34.49728864270583
 30
-0.0000000000000001
  0
VERTEX
  5
1D1
330
1C5
100
AcDbEntity
  8
DEFAULT
100
AcDbVertex
100
AcDb2dVertex
 10
47.12909816042399
 20
34.44597741627325
 30
-0.0000000000000001
  0
VERTEX
  5
1D2
330
1C5
100
AcDbEntity
  8
DEFAULT
100
AcDbVertex
100
AcDb2dVertex
 10
47.11507770801149
 20
34.39465192734019
 30
-0.0000000000000001
  0
VERTEX
  5
1D3
330
1C5
100
AcDbEntity
  8
DEFAULT
100
AcDbVertex
100
AcDb2dVertex
 10
47.09972013318265
 20
34.34336055379873
 30
0.0
  0
VERTEX
  5
1D4
330
1C5
100
AcDbEntity
  8
DEFAULT
100
AcDbVertex
100
AcDb2dVertex
 10
47.08301521745172
 20
34.29215283862639
 30
0.0
  0
VERTEX
  5
1D5
330
1C5
100
AcDbEntity
  8
DEFAULT
100
AcDbVertex
100
AcDb2dVertex
 10
47.06495507798234
 20
34.24107936784205
 30
0.0
  0
VERTEX
  5
1D6
330
1C5
100
AcDbEntity
  8
DEFAULT
100
AcDbVertex
100
AcDb2dVertex
 10
47.04553426233736
 20
34.19019163896389
 30
0.0
  0
VERTEX
  5
1D7
330
1C5
100
AcDbEntity
  8
DEFAULT
100
AcDbVertex
100
AcDb2dVertex
 10
47.02474983476041
 20
34.13954192046462
 30
0.0
  0
VERTEX
  5
1D8
330
1C5
100
AcDbEntity
  8
DEFAULT
100
AcDbVertex
100
AcDb2dVertex
 10
47.00260145306487
 20
34.08918310282334
 30
0.0
  0
VERTEX
  5
1D9
330
1C5
100
AcDbEntity
  8
DEFAULT
100
AcDbVertex
100
AcDb2dVertex
 10
46.97909143525051
 20
34.03916854187737
 30
0.0
  0
VERTEX
  5
1DA
330
1C5
100
AcDbEntity
  8
DEFAULT
100
AcDbVertex
100
AcDb2dVertex
 10
46.95422481502547
 20
33.9895518952768
 30
0.0
  0
VERTEX
  5
1DB
330
1C5
100
AcDbEntity
  8
DEFAULT
100
AcDbVertex
100
AcDb2dVertex
 10
46.92800938548046
 20
33.94038695294024
 30
0.0
  0
VERTEX
  5
1DC
330
1C5
100
AcDbEntity
  8
DEFAULT
100
AcDbVertex
100
AcDb2dVertex
 10
46.90045573024436
 20
33.89172746249787
 30
0.0
  0
VERTEX
  5
1DD
330
1C5
100
AcDbEntity
  8
DEFAULT
100
AcDbVertex
100
AcDb2dVertex
 10
46.87157724154226
 20
33.8436269507892
 30
0.0
  0
VERTEX
  5
1DE
330
1C5
100
AcDbEntity
  8
DEFAULT
100
AcDbVertex
100
AcDb2dVertex
 10
46.84139012468105
 20
33.79613854255269
 30
0.0
  0
VERTEX
  5
1DF
330
1C5
100
AcDbEntity
  8
DEFAULT
100
AcDbVertex
100
AcDb2dVertex
 10
46.80991338859941
 20
33.74931477750449
 30
0.0
  0
VERTEX
  5
1E0
330
1C5
100
AcDbEntity
  8
DEFAULT
100
AcDbVertex
100
AcDb2dVertex
 10
46.77716882223982
 20
33.70320742704983
 30
0.0
  0
VERTEX
  5
1E1
330
1C5
100
AcDbEntity
  8
DEFAULT
100
AcDbVertex
100
AcDb2dVertex
 10
46.7431809566265
 20
33.6578673119044
 30
0.0
  0
VERTEX
  5
1E2
330
1C5
100
AcDbEntity
  8
DEFAULT
100
AcDbVertex
100
AcDb2dVertex
 10
46.70797701266466
 20
33.61334412192168
 30
0.0
  0
VERTEX
  5
1E3
330
1C5
100
AcDbEntity
  8
DEFAULT
100
AcDbVertex
100
AcDb2dVertex
 10
46.67158683481057
 20
33.56968623942576
 30
0.0
  0
VERTEX
  5
1E4
330
1C5
100
AcDbEntity
  8
DEFAULT
100
AcDbVertex
100
AcDb2dVertex
 10
46.63404281089667
 20
33.52694056733716
 30
0.0
  0
VERTEX
  5
1E5
330
1C5
100
AcDbEntity
  8
DEFAULT
100
AcDbVertex
100
AcDb2dVertex
 10
46.59537977852971
 20
33.48515236335186
 30
0.0
  0
VERTEX
  5
1E6
330
1C5
100
AcDbEntity
  8
DEFAULT
100
AcDbVertex
100
AcDb2dVertex
 10
46.5556349186104
 20
33.44436508138959
 30
0.0
  0
VERTEX
  5
1E7
330
1C5
100
AcDbEntity
  8
DEFAULT
100
AcDbVertex
100
AcDb2dVertex
 10
46.51484763664814
 20
33.40462022147027
 30
0.0
  0
VERTEX
  5
1E8
330
1C5
100
AcDbEntity
  8
DEFAULT
100
AcDbVertex
100
AcDb2dVertex
 10
46.47305943266282
 20
33.36595718910332
 30
0.0
  0
VERTEX
  5
1E9
330
1C5
100
AcDbEntity
  8
DEFAULT
100
AcDbVertex
100
AcDb2dVertex
 10
46.43031376057423
 20
33.32841316518943
 30
0.0
  0
VERTEX
  5
1EA
330
1C5
100
AcDbEntity
  8
DEFAULT
100
AcDbVertex
100
AcDb2dVertex
 10
46.38665587807829
 20
33.29202298733533
 30
0.0
  0
VERTEX
  5
1EB
330
1C5
100
AcDbEntity
  8
DEFAULT
100
AcDbVertex
100
AcDb2dVertex
 10
46.34213268809557
 20
33.25681904337348
 30
0.0
  0
VERTEX
  5
1EC
330
1C5
100
AcDbEntity
  8
DEFAULT
100
AcDbVertex
100
AcDb2dVertex
 10
46.29679257295014
 20
33.22283117776016
 30
0.0
  0
VERTEX
  5
1ED
330
1C5
100
AcDbEntity
  8
DEFAULT
100
AcDbVertex
100
AcDb2dVertex
 10
46.25068522249547
 20
33.19008661140059
 30
0.0
  0
VERTEX
  5
1EE
330
1C5
100
AcDbEntity
  8
DEFAULT
100
AcDbVertex
100
AcDb2dVertex
 10
46.20386145744729
 20
33.15860987531896
 30
0.0
  0
VERTEX
  5
1EF
330
1C5
100
AcDbEntity
  8
DEFAULT
100
AcDbVertex
100
AcDb2dVertex
 10
46.15637304921078
 20
33.12842275845774
 30
0.0
  0
VERTEX
  5
1F0
330
1C5
100
AcDbEntity
  8
DEFAULT
100
AcDbVertex
100
AcDb2dVertex
 10
46.10827253750211
 20
33.09954426975563
 30
0.0
  0
VERTEX
  5
1F1
330
1C5
100
AcDbEntity
  8
DEFAULT
100
AcDbVertex
100
AcDb2dVertex
 10
46.05961304705975
 20
33.07199061451954
 30
0.0
  0
VERTEX
  5
1F2
330
1C5
100
AcDbEntity
  8
DEFAULT
100
AcDbVertex
100
AcDb2dVertex
 10
46.0104481047232
 20
33.04577518497454
 30
0.0
  0
VERTEX
  5
1F3
330
1C5
100
AcDbEntity
  8
DEFAULT
100
AcDbVertex
100
AcDb2dVertex
 10
45.96083145812264
 20
33.02090856474949
 30
0.0
  0
VERTEX
  5
1F4
330
1C5
100
AcDbEntity
  8
DEFAULT
100
AcDbVertex
100
AcDb2dVertex
 10
45.91081689717664
 20
32.99739854693514
 30
0.0
  0
VERTEX
  5
1F5
330
1C5
100
AcDbEntity
  8
DEFAULT
100
AcDbVertex
100
AcDb2dVertex
 10
45.86045807953538
 20
32.97525016523959
 30
0.0
  0
VERTEX
  5
1F6
330
1C5
100
AcDbEntity
  8
DEFAULT
100
AcDbVertex
100
AcDb2dVertex
 10
45.80980836103611
 20
32.95446573766264
 30
0.0
  0
VERTEX
  5
1F7
330
1C5
100
AcDbEntity
  8
DEFAULT
100
AcDbVertex
100
AcDb2dVertex
 10
45.75892063215795
 20
32.93504492201767
 30
0.0
  0
VERTEX
  5
1F8
330
1C5
100
AcDbEntity
  8
DEFAULT
100
AcDbVertex
100
AcDb2dVertex
 10
45.7078471613736
 20
32.91698478254829
 30
0.0
  0
VERTEX
  5
1F9
330
1C5
100
AcDbEntity
  8
DEFAULT
100
AcDbVertex
100
AcDb2dVertex
 10
45.65663944620127
 20
32.90027986681736
 30
0.0
  0
VERTEX
  5
1FA
330
1C5
100
AcDbEntity
  8
DEFAULT
100
AcDbVertex
100
AcDb2dVertex
 10
45.60534807265981
 20
32.88492229198852
 30
-0.0000000000000001
  0
VERTEX
  5
1FB
330
1C5
100
AcDbEntity
  8
DEFAULT
100
AcDbVertex
100
AcDb2dVertex
 10
45.55402258372673
 20
32.87090183957602
 30
-0.0000000000000001
  0
VERTEX
  5
1FC
330
1C5
100
AcDbEntity
  8
DEFAULT
100
AcDbVertex
100
AcDb2dVertex
 10
45.50271135729417
 20
32.85820605770595
 30
-0.0000000000000001
  0
VERTEX
  5
1FD
330
1C5
100
AcDbEntity
  8
DEFAULT
100
AcDbVertex
100
AcDb2dVertex
 10
45.45146149401229
 20
32.8468203699124
 30
-0.0000000000000001
  0
VERTEX
  5
1FE
330
1C5
100
AcDbEntity
  8
DEFAULT
100
AcDbVertex
100
AcDb2dVertex
 10
45.4003187153067
 20
32.83672818948352
 30
-0.0000000000000001
  0
VERTEX
  5
1FF
330
1C5
100
AcDbEntity
  8
DEFAULT
100
AcDbVertex
100
AcDb2dVertex
 10
45.34932727175485
 20
32.82791103837612
 30
-0.0000000000000001
  0
VERTEX
  5
200
330
1C5
100
AcDbEntity
  8
DEFAULT
100
AcDbVertex
100
AcDb2dVertex
 10
45.29852986190937
 20
32.82034866972986
 30
-0.0000000000000001
  0
VERTEX
  5
201
330
1C5
100
AcDbEntity
  8
DEFAULT
100
AcDbVertex
100
AcDb2dVertex
 10
45.24796756156451
 20
32.81401919303675
 30
-0.0000000000000001
  0
VERTEX
  5
202
330
1C5
100
AcDbEntity
  8
DEFAULT
100
AcDbVertex
100
AcDb2dVertex
 10
45.19767976337494
 20
32.80889920105167
 30
-0.0000000000000001
  0
VERTEX
  5
203
330
1C5
100
AcDbEntity
  8
DEFAULT
100
AcDbVertex
100
AcDb2dVertex
 10
45.14770412665669
 20
32.80496389757057
 30
-0.0000000000000001
  0
VERTEX
  5
204
330
1C5
100
AcDbEntity
  8
DEFAULT
100
AcDbVertex
100
AcDb2dVertex
 10
45.09807653712706
 20
32.80218722524753
 30
-0.0000000000000002
  0
VERTEX
  5
205
330
1C5
100
AcDbEntity
  8
DEFAULT
100
AcDbVertex
100
AcDb2dVertex
 10
45.04883107627555
 20
32.80054199267416
 30
-0.0000000000000002
  0
VERTEX
  5
206
330
1C5
100
AcDbEntity
  8
DEFAULT
100
AcDbVertex
100
AcDb2dVertex
 10
45.00000000000001
 20
32.8
 30
-0.0000000000000002
  0
VERTEX
  5
207
330
1C5
100
AcDbEntity
  8
DEFAULT
100
AcDbVertex
100
AcDb2dVertex
 10
44.95116892372448
 20
32.80054199267416
 30
-0.0000000000000002
  0
VERTEX
  5
208
330
1C5
100
AcDbEntity
  8
DEFAULT
100
AcDbVertex
100
AcDb2dVertex
 10
44.90192346287296
 20
32.80218722524753
 30
-0.0000000000000002
  0
VERTEX
  5
209
330
1C5
100
AcDbEntity
  8
DEFAULT
100
AcDbVertex
100
AcDb2dVertex
 10
44.85229587334332
 20
32.80496389757057
 30
-0.0000000000000001
  0
VERTEX
  5
20A
330
1C5
100
AcDbEntity
  8
DEFAULT
100
AcDbVertex
100
AcDb2dVertex
 10
44.80232023662505
 20
32.80889920105167
 30
-0.0000000000000001
  0
VERTEX
  5
20B
330
1C5
100
AcDbEntity
  8
DEFAULT
100
AcDbVertex
100
AcDb2dVertex
 10
44.75203243843549
 20
32.81401919303674
 30
-0.0000000000000001
  0
VERTEX
  5
20C
330
1C5
100
AcDbEntity
  8
DEFAULT
100
AcDbVertex
100
AcDb2dVertex
 10
44.70147013809063
 20
32.82034866972986
 30
-0.0000000000000001
  0
VERTEX
  5
20D
330
1C5
100
AcDbEntity
  8
DEFAULT
100
AcDbVertex
100
AcDb2dVertex
 10
44.65067272824515
 20
32.82791103837612
 30
-0.0000000000000001
  0
VERTEX
  5
20E
330
1C5
100
AcDbEntity
  8
DEFAULT
100
AcDbVertex
100
AcDb2dVertex
 10
44.59968128469328
 20
32.83672818948353
 30
-0.0000000000000001
  0
VERTEX
  5
20F
330
1C5
100
AcDbEntity
  8
DEFAULT
100
AcDbVertex
100
AcDb2dVertex
 10
44.54853850598771
 20
32.8468203699124
 30
-0.0000000000000001
  0
VERTEX
  5
210
330
1C5
100
AcDbEntity
  8
DEFAULT
100
AcDbVertex
100
AcDb2dVertex
 10
44.49728864270582
 20
32.85820605770596
 30
-0.0000000000000001
  0
VERTEX
  5
211
330
1C5
100
AcDbEntity
  8
DEFAULT
100
AcDbVertex
100
AcDb2dVertex
 10
44.44597741627325
 20
32.87090183957603
 30
-0.0000000000000001
  0
VERTEX
  5
212
330
1C5
100
AcDbEntity
  8
DEFAULT
100
AcDbVertex
100
AcDb2dVertex
 10
44.39465192734018
 20
32.88492229198853
 30
-0.0000000000000001
  0
VERTEX
  5
213
330
1C5
100
AcDbEntity
  8
DEFAULT
100
AcDbVertex
100
AcDb2dVertex
 10
44.34336055379872
 20
32.90027986681738
 30
0.0
  0
VERTEX
  5
214
330
1C5
100
AcDbEntity
  8
DEFAULT
100
AcDbVertex
100
AcDb2dVertex
 10
44.29215283862638
 20
32.91698478254831
 30
0.0
  0
VERTEX
  5
215
330
1C5
100
AcDbEntity
  8
DEFAULT
100
AcDbVertex
100
AcDb2dVertex
 10
44.24107936784203
 20
32.93504492201769
 30
0.0
  0
VERTEX
  5
216
330
1C5
100
AcDbEntity
  8
DEFAULT
100
AcDbVertex
100
AcDb2dVertex
 10
44.19019163896387
 20
32.95446573766266
 30
0.0
  0
VERTEX
  5
217
330
1C5
100
AcDbEntity
  8
DEFAULT
100
AcDbVertex
100
AcDb2dVertex
 10
44.13954192046461
 20
32.9752501652396
 30
0.0
  0
VERTEX
  5
218
330
1C5
100
AcDbEntity
  8
DEFAULT
100
AcDbVertex
100
AcDb2dVertex
 10
44.08918310282333
 20
32.99739854693514
 30
0.0
  0
VERTEX
  5
219
330
1C5
100
AcDbEntity
  8
DEFAULT
100
AcDbVertex
100
AcDb2dVertex
 10
44.03916854187735
 20
33.02090856474949
 30
0.0
  0
VERTEX
  5
21A
330
1C5
100
AcDbEntity
  8
DEFAULT
100
AcDbVertex
100
AcDb2dVertex
 10
43.98955189527678
 20
33.04577518497454
 30
0.0
  0
VERTEX
  5
21B
330
1C5
100
AcDbEntity
  8
DEFAULT
100
AcDbVertex
100
AcDb2dVertex
 10
43.94038695294022
 20
33.07199061451955
 30
0.0
  0
VERTEX
  5
21C
330
1C5
100
AcDbEntity
  8
DEFAULT
100
AcDbVertex
100
AcDb2dVertex
 10
43.89172746249785
 20
33.09954426975564
 30
0.0
  0
VERTEX
  5
21D
330
1C5
100
AcDbEntity
  8
DEFAULT
100
AcDbVertex
100
AcDb2dVertex
 10
43.84362695078917
 20
33.12842275845776
 30
0.0
  0
VERTEX
  5
21E
330
1C5
100
AcDbEntity
  8
DEFAULT
100
AcDbVertex
100
AcDb2dVertex
 10
43.79613854255267
 20
33.15860987531897
 30
0.0
  0
VERTEX
  5
21F
330
1C5
100
AcDbEntity
  8
DEFAULT
100
AcDbVertex
100
AcDb2dVertex
 10
43.74931477750449
 20
33.19008661140061
 30
0.0
  0
VERTEX
  5
220
330
1C5
100
AcDbEntity
  8
DEFAULT
100
AcDbVertex
100
AcDb2dVertex
 10
43.70320742704982
 20
33.22283117776018
 30
0.0
  0
VERTEX
  5
221
330
1C5
100
AcDbEntity
  8
DEFAULT
100
AcDbVertex
100
AcDb2dVertex
 10
43.65786731190438
 20
33.2568190433735
 30
0.0
  0
VERTEX
  5
222
330
1C5
100
AcDbEntity
  8
DEFAULT
100
AcDbVertex
100
AcDb2dVertex
 10
43.61334412192166
 20
33.29202298733534
 30
0.0
  0
VERTEX
  5
223
330
1C5
100
AcDbEntity
  8
DEFAULT
100
AcDbVertex
100
AcDb2dVertex
 10
43.56968623942576
 20
33.32841316518945
 30
0.0
  0
VERTEX
  5
224
330
1C5
100
AcDbEntity
  8
DEFAULT
100
AcDbVertex
100
AcDb2dVertex
 10
43.52694056733716
 20
33.36595718910334
 30
0.0
  0
VERTEX
  5
225
330
1C5
100
AcDbEntity
  8
DEFAULT
100
AcDbVertex
100
AcDb2dVertex
 10
43.48515236335184
 20
33.40462022147029
 30
0.0
  0
VERTEX
  5
226
330
1C5
100
AcDbEntity
  8
DEFAULT
100
AcDbVertex
100
AcDb2dVertex
 10
43.44436508138958
 20
33.44436508138961
 30
0.0
  0
VERTEX
  5
227
330
1C5
100
AcDbEntity
  8
DEFAULT
100
AcDbVertex
100
AcDb2dVertex
 10
43.40462022147027
 20
33.48515236335187
 30
0.0
  0
VERTEX
  5
228
330
1C5
100
AcDbEntity
  8
DEFAULT
100
AcDbVertex
100
AcDb2dVertex
 10
43.36595718910333
 20
33.52694056733718
 30
0.0
  0
VERTEX
  5
229
330
1C5
100
AcDbEntity
  8
DEFAULT
100
AcDbVertex
100
AcDb2dVertex
 10
43.32841316518944
 20
33.56968623942577
 30
0.0
  0
VERTEX
  5
22A
330
1C5
100
AcDbEntity
  8
DEFAULT
100
AcDbVertex
100
AcDb2dVertex
 10
43.29202298733532
 20
33.61334412192169
 30
0.0
  0
VERTEX
  5
22B
330
1C5
100
AcDbEntity
  8
DEFAULT
100
AcDbVertex
100
AcDb2dVertex
 10
43.25681904337349
 20
33.65786731190441
 30
0.0
  0
VERTEX
  5
22C
330
1C5
100
AcDbEntity
  8
DEFAULT
100
AcDbVertex
100
AcDb2dVertex
 10
43.22283117776016
 20
33.70320742704983
 30
0.0
  0
VERTEX
  5
22D
330
1C5
100
AcDbEntity
  8
DEFAULT
100
AcDbVertex
100
AcDb2dVertex
 10
43.19008661140058
 20
33.74931477750449
 30
0.0
  0
VERTEX
  5
22E
330
1C5
100
AcDbEntity
  8
DEFAULT
100
AcDbVertex
100
AcDb2dVertex
 10
43.15860987531894
 20
33.79613854255269
 30
0.0
  0
VERTEX
  5
22F
330
1C5
100
AcDbEntity
  8
DEFAULT
100
AcDbVertex
100
AcDb2dVertex
 10
43.12842275845774
 20
33.84362695078919
 30
0.0
  0
VERTEX
  5
230
330
1C5
100
AcDbEntity
  8
DEFAULT
100
AcDbVertex
100
AcDb2dVertex
 10
43.09954426975564
 20
33.89172746249786
 30
0.0
  0
VERTEX
  5
231
330
1C5
100
AcDbEntity
  8
DEFAULT
100
AcDbVertex
100
AcDb2dVertex
 10
43.07199061451955
 20
33.94038695294024
 30
0.0
  0
VERTEX
  5
232
330
1C5
100
AcDbEntity
  8
DEFAULT
100
AcDbVertex
100
AcDb2dVertex
 10
43.04577518497454
 20
33.9895518952768
 30
0.0
  0
VERTEX
  5
233
330
1C5
100
AcDbEntity
  8
DEFAULT
100
AcDbVertex
100
AcDb2dVertex
 10
43.0209085647495
 20
34.03916854187737
 30
0.0
  0
VERTEX
  5
234
330
1C5
100
AcDbEntity
  8
DEFAULT
100
AcDbVertex
100
AcDb2dVertex
 10
42.99739854693514
 20
34.08918310282335
 30
0.0
  0
VERTEX
  5
235
330
1C5
100
AcDbEntity
  8
DEFAULT
100
AcDbVertex
100
AcDb2dVertex
 10
42.97525016523961
 20
34.13954192046463
 30
0.0
  0
VERTEX
  5
236
330
1C5
100
AcDbEntity
  8
DEFAULT
100
AcDbVertex
100
AcDb2dVertex
 10
42.95446573766265
 20
34.19019163896389
 30
0.0
  0
VERTEX
  5
237
330
1C5
100
AcDbEntity
  8
DEFAULT
100
AcDbVertex
100
AcDb2dVertex
 10
42.93504492201769
 20
34.24107936784205
 30
0.0
  0
VERTEX
  5
238
330
1C5
100
AcDbEntity
  8
DEFAULT
100
AcDbVertex
100
AcDb2dVertex
 10
42.91698478254831
 20
34.29215283862639
 30
0.0
  0
VERTEX
  5
239
330
1C5
100
AcDbEntity
  8
DEFAULT
100
AcDbVertex
100
AcDb2dVertex
 10
42.90027986681737
 20
34.34336055379872
 30
0.0
  0
VERTEX
  5
23A
330
1C5
100
AcDbEntity
  8
DEFAULT
100
AcDbVertex
100
AcDb2dVertex
 10
42.88492229198853
 20
34.39465192734019
 30
-0.0000000000000001
  0
VERTEX
  5
23B
330
1C5
100
AcDbEntity
  8
DEFAULT
100
AcDbVertex
100
AcDb2dVertex
 10
42.87090183957604
 20
34.44597741627325
 30
-0.0000000000000001
  0
VERTEX
  5
23C
330
1C5
100
AcDbEntity
  8
DEFAULT
100
AcDbVertex
100
AcDb2dVertex
 10
42.85820605770596
 20
34.49728864270582
 30
-0.0000000000000001
  0
VERTEX
  5
23D
330
1C5
100
AcDbEntity
  8
DEFAULT
100
AcDbVertex
100
AcDb2dVertex
 10
42.8468203699124
 20
34.54853850598771
 30
-0.0000000000000001
  0
VERTEX
  5
23E
330
1C5
100
AcDbEntity
  8
DEFAULT
100
AcDbVertex
100
AcDb2dVertex
 10
42.83672818948352
 20
34.59968128469328
 30
-0.0000000000000001
  0
VERTEX
  5
23F
330
1C5
100
AcDbEntity
  8
DEFAULT
100
AcDbVertex
100
AcDb2dVertex
 10
42.82791103837612
 20
34.65067272824515
 30
-0.0000000000000001
  0
VERTEX
  5
240
330
1C5
100
AcDbEntity
  8
DEFAULT
100
AcDbVertex
100
AcDb2dVertex
 10
42.82034866972987
 20
34.70147013809063
 30
-0.0000000000000001
  0
VERTEX
  5
241
330
1C5
100
AcDbEntity
  8
DEFAULT
100
AcDbVertex
100
AcDb2dVertex
 10
42.81401919303674
 20
34.75203243843551
 30
-0.0000000000000001
  0
VERTEX
  5
242
330
1C5
100
AcDbEntity
  8
DEFAULT
100
AcDbVertex
100
AcDb2dVertex
 10
42.80889920105166
 20
34.80232023662505
 30
-0.0000000000000001
  0
VERTEX
  5
243
330
1C5
100
AcDbEntity
  8
DEFAULT
100
AcDbVertex
100
AcDb2dVertex
 10
42.80496389757058
 20
34.85229587334332
 30
-0.0000000000000001
  0
VERTEX
  5
244
330
1C5
100
AcDbEntity
  8
DEFAULT
100
AcDbVertex
100
AcDb2dVertex
 10
42.80218722524753
 20
34.90192346287295
 30
-0.0000000000000002
  0
VERTEX
  5
245
330
1C5
100
AcDbEntity
  8
DEFAULT
100
AcDbVertex
100
AcDb2dVertex
 10
42.80054199267417
 20
34.95116892372447
 30
-0.0000000000000002
  0
VERTEX
  5
246
330
1C5
100
AcDbEntity
  8
DEFAULT
100
AcDbVertex
100
AcDb2dVertex
 10
42.8
 20
35.0
 30
-0.0000000000000002
  0
SEQEND
  5
247
330
1C5
100
AcDbEntity
  8
DEFAULT
  0
POLYLINE
  5
248
330
1F
100
AcDbEntity
  8
DEFAULT
100
AcDb2dPolyline
 66
     1
 10
0.0
 20
0.0
 30
-0.0000000000000002
  0
VERTEX
  5
249
330
248
100
AcDbEntity
  8
DEFAULT
100
AcDbVertex
100
AcDb2dVertex
 10
2.800000000000002
 20
35.0
 30
-0.0000000000000002
  0
VERTEX
  5
24A
330
248
100
AcDbEntity
  8
DEFAULT
100
AcDbVertex
100
AcDb2dVertex
 10
2.800541992674158
 20
35.04883107627553
 30
-0.0000000000000002
  0
VERTEX
  5
24B
330
248
100
AcDbEntity
  8
DEFAULT
100
AcDbVertex
100
AcDb2dVertex
 10
2.802187225247528
 20
35.09807653712706
 30
-0.0000000000000002
  0
VERTEX
  5
24C
330
248
100
AcDbEntity
  8
DEFAULT
100
AcDbVertex
100
AcDb2dVertex
 10
2.804963897570572
 20
35.14770412665669
 30
-0.0000000000000001
  0
VERTEX
  5
24D
330
248
100
AcDbEntity
  8
DEFAULT
100
AcDbVertex
100
AcDb2dVertex
 10
2.808899201051668
 20
35.19767976337496
 30
-0.0000000000000001
  0
VERTEX
  5
24E
330
248
100
AcDbEntity
  8
DEFAULT
100
AcDbVertex
100
AcDb2dVertex
 10
2.81401919303674
 20
35.24796756156452
 30
-0.0000000000000001
  0
VERTEX
  5
24F
330
248
100
AcDbEntity
  8
DEFAULT
100
AcDbVertex
100
AcDb2dVertex
 10
2.820348669729865
 20
35.29852986190938
 30
-0.0000000000000001
  0
VERTEX
  5
250
330
248
100
AcDbEntity
  8
DEFAULT
100
AcDbVertex
100
AcDb2dVertex
 10
2.82791103837612
 20
35.34932727175486
 30
-0.0000000000000001
  0
VERTEX
  5
251
330
248
100
AcDbEntity
  8
DEFAULT
100
AcDbVertex
100
AcDb2dVertex
 10
2.836728189483537
 20
35.40031871530672
 30
-0.0000000000000001
  0
VERTEX
  5
252
330
248
100
AcDbEntity
  8
DEFAULT
100
AcDbVertex
100
AcDb2dVertex
 10
2.846820369912399
 20
35.45146149401231
 30
-0.0000000000000001
  0
VERTEX
  5
253
330
248
100
AcDbEntity
  8
DEFAULT
100
AcDbVertex
100
AcDb2dVertex
 10
2.858206057705961
 20
35.5027113572942
 30
-0.0000000000000001
  0
VERTEX
  5
254
330
248
100
AcDbEntity
  8
DEFAULT
100
AcDbVertex
100
AcDb2dVertex
 10
2.870901839576028
 20
35.55402258372675
 30
-0.0000000000000001
  0
VERTEX
  5
255
330
248
100
AcDbEntity
  8
DEFAULT
100
AcDbVertex
100
AcDb2dVertex
 10
2.88492229198853
 20
35.60534807265981
 30
-0.0000000000000001
  0
VERTEX
  5
256
330
248
100
AcDbEntity
  8
DEFAULT
100
AcDbVertex
100
AcDb2dVertex
 10
2.900279866817371
 20
35.65663944620128
 30
0.0
  0
VERTEX
  5
257
330
248
100
AcDbEntity
  8
DEFAULT
100
AcDbVertex
100
AcDb2dVertex
 10
2.916984782548307
 20
35.70784716137362
 30
0.0
  0
VERTEX
  5
258
330
248
100
AcDbEntity
  8
DEFAULT
100
AcDbVertex
100
AcDb2dVertex
 10
2.935044922017682
 20
35.75892063215797
 30
0.0
  0
VERTEX
  5
259
330
248
100
AcDbEntity
  8
DEFAULT
100
AcDbVertex
100
AcDb2dVertex
 10
2.954465737662651
 20
35.80980836103611
 30
0.0
  0
VERTEX
  5
25A
330
248
100
AcDbEntity
  8
DEFAULT
100
AcDbVertex
100
AcDb2dVertex
 10
2.975250165239596
 20
35.86045807953538
 30
0.0
  0
VERTEX
  5
25B
330
248
100
AcDbEntity
  8
DEFAULT
100
AcDbVertex
100
AcDb2dVertex
 10
2.997398546935139
 20
35.91081689717667
 30
0.0
  0
VERTEX
  5
25C
330
248
100
AcDbEntity
  8
DEFAULT
100
AcDbVertex
100
AcDb2dVertex
 10
3.02090856474949
 20
35.96083145812264
 30
0.0
  0
VERTEX
  5
25D
330
248
100
AcDbEntity
  8
DEFAULT
100
AcDbVertex
100
AcDb2dVertex
 10
3.04577518497454
 20
36.0104481047232
 30
0.0
  0
VERTEX
  5
25E
330
248
100
AcDbEntity
  8
DEFAULT
100
AcDbVertex
100
AcDb2dVertex
 10
3.071990614519542
 20
36.05961304705976
 30
0.0
  0
VERTEX
  5
25F
330
248
100
AcDbEntity
  8
DEFAULT
100
AcDbVertex
100
AcDb2dVertex
 10
3.099544269755645
 20
36.10827253750212
 30
0.0
  0
VERTEX
  5
260
330
248
100
AcDbEntity
  8
DEFAULT
100
AcDbVertex
100
AcDb2dVertex
 10
3.128422758457746
 20
36.15637304921079
 30
0.0
  0
VERTEX
  5
261
330
248
100
AcDbEntity
  8
DEFAULT
100
AcDbVertex
100
AcDb2dVertex
 10
3.15860987531896
 20
36.2038614574473
 30
0.0
  0
VERTEX
  5
262
330
248
100
AcDbEntity
  8
DEFAULT
100
AcDbVertex
100
AcDb2dVertex
 10
3.19008661140059
 20
36.25068522249549
 30
0.0
  0
VERTEX
  5
263
330
248
100
AcDbEntity
  8
DEFAULT
100
AcDbVertex
100
AcDb2dVertex
 10
3.222831177760165
 20
36.29679257295015
 30
0.0
  0
VERTEX
  5
264
330
248
100
AcDbEntity
  8
DEFAULT
100
AcDbVertex
100
AcDb2dVertex
 10
3.256819043373486
 20
36.34213268809558
 30
0.0
  0
VERTEX
  5
265
330
248
100
AcDbEntity
  8
DEFAULT
100
AcDbVertex
100
AcDb2dVertex
 10
3.292022987335336
 20
36.38665587807829
 30
0.0
  0
VERTEX
  5
266
330
248
100
AcDbEntity
  8
DEFAULT
100
AcDbVertex
100
AcDb2dVertex
 10
3.328413165189433
 20
36.43031376057422
 30
0.0
  0
VERTEX
  5
267
330
248
100
AcDbEntity
  8
DEFAULT
100
AcDbVertex
100
AcDb2dVertex
 10
3.365957189103326
 20
36.47305943266282
 30
0.0
  0
VERTEX
  5
268
330
248
100
AcDbEntity
  8
DEFAULT
100
AcDbVertex
100
AcDb2dVertex
 10
3.40462022147027
 20
36.51484763664813
 30
0.0
  0
VERTEX
  5
269
330
248
100
AcDbEntity
  8
DEFAULT
100
AcDbVertex
100
AcDb2dVertex
 10
3.444365081389584
 20
36.55563491861039
 30
0.0
  0
VERTEX
  5
26A
330
248
100
AcDbEntity
  8
DEFAULT
100
AcDbVertex
100
AcDb2dVertex
 10
3.485152363351847
 20
36.5953797785297
 30
0.0
  0
VERTEX
  5
26B
330
248
100
AcDbEntity
  8
DEFAULT
100
AcDbVertex
100
AcDb2dVertex
 10
3.526940567337163
 20
36.63404281089666
 30
0.0
  0
VERTEX
  5
26C
330
248
100
AcDbEntity
  8
DEFAULT
100
AcDbVertex
100
AcDb2dVertex
 10
3.569686239425752
 20
36.67158683481055
 30
0.0
  0
VERTEX
  5
26D
330
248
100
AcDbEntity
  8
DEFAULT
100
AcDbVertex
100
AcDb2dVertex
 10
3.613344121921683
 20
36.70797701266464
 30
0.0
  0
VERTEX
  5
26E
330
248
100
AcDbEntity
  8
DEFAULT
100
AcDbVertex
100
AcDb2dVertex
 10
3.657867311904399
 20
36.74318095662649
 30
0.0
  0
VERTEX
  5
26F
330
248
100
AcDbEntity
  8
DEFAULT
100
AcDbVertex
100
AcDb2dVertex
 10
3.703207427049828
 20
36.77716882223982
 30
0.0
  0
VERTEX
  5
270
330
248
100
AcDbEntity
  8
DEFAULT
100
AcDbVertex
100
AcDb2dVertex
 10
3.749314777504488
 20
36.8099133885994
 30
0.0
  0
VERTEX
  5
271
330
248
100
AcDbEntity
  8
DEFAULT
100
AcDbVertex
100
AcDb2dVertex
 10
3.796138542552679
 20
36.84139012468103
 30
0.0
  0
VERTEX
  5
272
330
248
100
AcDbEntity
  8
DEFAULT
100
AcDbVertex
100
AcDb2dVertex
 10
3.843626950789182
 20
36.87157724154224
 30
0.0
  0
VERTEX
  5
273
330
248
100
AcDbEntity
  8
DEFAULT
100
AcDbVertex
100
AcDb2dVertex
 10
3.891727462497861
 20
36.90045573024435
 30
0.0
  0
VERTEX
  5
274
330
248
100
AcDbEntity
  8
DEFAULT
100
AcDbVertex
100
AcDb2dVertex
 10
3.940386952940227
 20
36.92800938548045
 30
0.0
  0
VERTEX
  5
275
330
248
100
AcDbEntity
  8
DEFAULT
100
AcDbVertex
100
AcDb2dVertex
 10
3.989551895276787
 20
36.95422481502545
 30
0.0
  0
VERTEX
  5
276
330
248
100
AcDbEntity
  8
DEFAULT
100
AcDbVertex
100
AcDb2dVertex
 10
4.039168541877349
 20
36.97909143525051
 30
0.0
  0
VERTEX
  5
277
330
248
100
AcDbEntity
  8
DEFAULT
100
AcDbVertex
100
AcDb2dVertex
 10
4.089183102823335
 20
37.00260145306486
 30
0.0
  0
VERTEX
  5
278
330
248
100
AcDbEntity
  8
DEFAULT
100
AcDbVertex
100
AcDb2dVertex
 10
4.13954192046461
 20
37.0247498347604
 30
0.0
  0
VERTEX
  5
279
330
248
100
AcDbEntity
  8
DEFAULT
100
AcDbVertex
100
AcDb2dVertex
 10
4.190191638963877
 20
37.04553426233734
 30
0.0
  0
VERTEX
  5
27A
330
248
100
AcDbEntity
  8
DEFAULT
100
AcDbVertex
100
AcDb2dVertex
 10
4.241079367842033
 20
37.06495507798232
 30
0.0
  0
VERTEX
  5
27B
330
248
100
AcDbEntity
  8
DEFAULT
100
AcDbVertex
100
AcDb2dVertex
 10
4.292152838626384
 20
37.0830152174517
 30
0.0
  0
VERTEX
  5
27C
330
248
100
AcDbEntity
  8
DEFAULT
100
AcDbVertex
100
AcDb2dVertex
 10
4.343360553798717
 20
37.09972013318264
 30
0.0
  0
VERTEX
  5
27D
330
248
100
AcDbEntity
  8
DEFAULT
100
AcDbVertex
100
AcDb2dVertex
 10
4.394651927340185
 20
37.11507770801146
 30
-0.0000000000000001
  0
VERTEX
  5
27E
330
248
100
AcDbEntity
  8
DEFAULT
100
AcDbVertex
100
AcDb2dVertex
 10
4.445977416273251
 20
37.12909816042398
 30
-0.0000000000000001
  0
VERTEX
  5
27F
330
248
100
AcDbEntity
  8
DEFAULT
100
AcDbVertex
100
AcDb2dVertex
 10
4.497288642705818
 20
37.14179394229405
 30
-0.0000000000000001
  0
VERTEX
  5
280
330
248
100
AcDbEntity
  8
DEFAULT
100
AcDbVertex
100
AcDb2dVertex
 10
4.548538505987701
 20
37.15317963008761
 30
-0.0000000000000001
  0
VERTEX
  5
281
330
248
100
AcDbEntity
  8
DEFAULT
100
AcDbVertex
100
AcDb2dVertex
 10
4.59968128469328
 20
37.16327181051646
 30
-0.0000000000000001
  0
VERTEX
  5
282
330
248
100
AcDbEntity
  8
DEFAULT
100
AcDbVertex
100
AcDb2dVertex
 10
4.650672728245142
 20
37.17208896162388
 30
-0.0000000000000001
  0
VERTEX
  5
283
330
248
100
AcDbEntity
  8
DEFAULT
100
AcDbVertex
100
AcDb2dVertex
 10
4.70147013809063
 20
37.17965133027015
 30
-0.0000000000000001
  0
VERTEX
  5
284
330
248
100
AcDbEntity
  8
DEFAULT
100
AcDbVertex
100
AcDb2dVertex
 10
4.75203243843549
 20
37.18598080696327
 30
-0.0000000000000001
  0
VERTEX
  5
285
330
248
100
AcDbEntity
  8
DEFAULT
100
AcDbVertex
100
AcDb2dVertex
 10
4.802320236625049
 20
37.19110079894834
 30
-0.0000000000000001
  0
VERTEX
  5
286
330
248
100
AcDbEntity
  8
DEFAULT
100
AcDbVertex
100
AcDb2dVertex
 10
4.852295873343309
 20
37.19503610242943
 30
-0.0000000000000001
  0
VERTEX
  5
287
330
248
100
AcDbEntity
  8
DEFAULT
100
AcDbVertex
100
AcDb2dVertex
 10
4.901923462872953
 20
37.19781277475248
 30
-0.0000000000000002
  0
VERTEX
  5
288
330
248
100
AcDbEntity
  8
DEFAULT
100
AcDbVertex
100
AcDb2dVertex
 10
4.951168923724469
 20
37.19945800732585
 30
-0.0000000000000002
  0
VERTEX
  5
289
330
248
100
AcDbEntity
  8
DEFAULT
100
AcDbVertex
100
AcDb2dVertex
 10
5.000000000000001
 20
37.2
 30
-0.0000000000000002
  0
VERTEX
  5
28A
330
248
100
AcDbEntity
  8
DEFAULT
100
AcDbVertex
100
AcDb2dVertex
 10
5.048831076275534
 20
37.19945800732585
 30
-0.0000000000000002
  0
VERTEX
  5
28B
330
248
100
AcDbEntity
  8
DEFAULT
100
AcDbVertex
100
AcDb2dVertex
 10
5.098076537127048
 20
37.19781277475248
 30
-0.0000000000000002
  0
VERTEX
  5
28C
330
248
100
AcDbEntity
  8
DEFAULT
100
AcDbVertex
100
AcDb2dVertex
 10
5.147704126656691
 20
37.19503610242943
 30
-0.0000000000000001
  0
VERTEX
  5
28D
330
248
100
AcDbEntity
  8
DEFAULT
100
AcDbVertex
100
AcDb2dVertex
 10
5.19767976337495
 20
37.19110079894833
 30
-0.0000000000000001
  0
VERTEX
  5
28E
330
248
100
AcDbEntity
  8
DEFAULT
100
AcDbVertex
100
AcDb2dVertex
 10
5.24796756156451
 20
37.18598080696327
 30
-0.0000000000000001
  0
VERTEX
  5
28F
330
248
100
AcDbEntity
  8
DEFAULT
100
AcDbVertex
100
AcDb2dVertex
 10
5.298529861909369
 20
37.17965133027014
 30
-0.0000000000000001
  0
VERTEX
  5
290
330
248
100
AcDbEntity
  8
DEFAULT
100
AcDbVertex
100
AcDb2dVertex
 10
5.349327271754857
 20
37.17208896162388
 30
-0.0000000000000001
  0
VERTEX
  5
291
330
248
100
AcDbEntity
  8
DEFAULT
100
AcDbVertex
100
AcDb2dVertex
 10
5.400318715306716
 20
37.16327181051646
 30
-0.0000000000000001
  0
VERTEX
  5
292
330
248
100
AcDbEntity
  8
DEFAULT
100
AcDbVertex
100
AcDb2dVertex
 10
5.451461494012297
 20
37.15317963008761
 30
-0.0000000000000001
  0
VERTEX
  5
293
330
248
100
AcDbEntity
  8
DEFAULT
100
AcDbVertex
100
AcDb2dVertex
 10
5.502711357294179
 20
37.14179394229405
 30
-0.0000000000000001
  0
VERTEX
  5
294
330
248
100
AcDbEntity
  8
DEFAULT
100
AcDbVertex
100
AcDb2dVertex
 10
5.554022583726743
 20
37.12909816042397
 30
-0.0000000000000001
  0
VERTEX
  5
295
330
248
100
AcDbEntity
  8
DEFAULT
100
AcDbVertex
100
AcDb2dVertex
 10
5.605348072659809
 20
37.11507770801147
 30
-0.0000000000000001
  0
VERTEX
  5
296
330
248
100
AcDbEntity
  8
DEFAULT
100
AcDbVertex
100
AcDb2dVertex
 10
5.656639446201277
 20
37.09972013318263
 30
0.0
  0
VERTEX
  5
297
330
248
100
AcDbEntity
  8
DEFAULT
100
AcDbVertex
100
AcDb2dVertex
 10
5.70784716137361
 20
37.0830152174517
 30
0.0
  0
VERTEX
  5
298
330
248
100
AcDbEntity
  8
DEFAULT
100
AcDbVertex
100
AcDb2dVertex
 10
5.75892063215796
 20
37.06495507798232
 30
0.0
  0
VERTEX
  5
299
330
248
100
AcDbEntity
  8
DEFAULT
100
AcDbVertex
100
AcDb2dVertex
 10
5.809808361036113
 20
37.04553426233735
 30
0.0
  0
VERTEX
  5
29A
330
248
100
AcDbEntity
  8
DEFAULT
100
AcDbVertex
100
AcDb2dVertex
 10
5.860458079535381
 20
37.02474983476041
 30
0.0
  0
VERTEX
  5
29B
330
248
100
AcDbEntity
  8
DEFAULT
100
AcDbVertex
100
AcDb2dVertex
 10
5.910816897176654
 20
37.00260145306487
 30
0.0
  0
VERTEX
  5
29C
330
248
100
AcDbEntity
  8
DEFAULT
100
AcDbVertex
100
AcDb2dVertex
 10
5.960831458122639
 20
36.97909143525052
 30
0.0
  0
VERTEX
  5
29D
330
248
100
AcDbEntity
  8
DEFAULT
100
AcDbVertex
100
AcDb2dVertex
 10
6.010448104723199
 20
36.95422481502546
 30
0.0
  0
VERTEX
  5
29E
330
248
100
AcDbEntity
  8
DEFAULT
100
AcDbVertex
100
AcDb2dVertex
 10
6.059613047059758
 20
36.92800938548046
 30
0.0
  0
VERTEX
  5
29F
330
248
100
AcDbEntity
  8
DEFAULT
100
AcDbVertex
100
AcDb2dVertex
 10
6.108272537502123
 20
36.90045573024435
 30
0.0
  0
VERTEX
  5
2A0
330
248
100
AcDbEntity
  8
DEFAULT
100
AcDbVertex
100
AcDb2dVertex
 10
6.1563730492108
 20
36.87157724154224
 30
0.0
  0
VERTEX
  5
2A1
330
248
100
AcDbEntity
  8
DEFAULT
100
AcDbVertex
100
AcDb2dVertex
 10
6.203861457447302
 20
36.84139012468103
 30
0.0
  0
VERTEX
  5
2A2
330
248
100
AcDbEntity
  8
DEFAULT
100
AcDbVertex
100
AcDb2dVertex
 10
6.250685222495492
 20
36.80991338859939
 30
0.0
  0
VERTEX
  5
2A3
330
248
100
AcDbEntity
  8
DEFAULT
100
AcDbVertex
100
AcDb2dVertex
 10
6.296792572950151
 20
36.77716882223983
 30
0.0
  0
VERTEX
  5
2A4
330
248
100
AcDbEntity
  8
DEFAULT
100
AcDbVertex
100
AcDb2dVertex
 10
6.342132688095579
 20
36.7431809566265
 30
0.0
  0
VERTEX
  5
2A5
330
248
100
AcDbEntity
  8
DEFAULT
100
AcDbVertex
100
AcDb2dVertex
 10
6.386655878078294
 20
36.70797701266465
 30
0.0
  0
VERTEX
  5
2A6
330
248
100
AcDbEntity
  8
DEFAULT
100
AcDbVertex
100
AcDb2dVertex
 10
6.430313760574225
 20
36.67158683481056
 30
0.0
  0
VERTEX
  5
2A7
330
248
100
AcDbEntity
  8
DEFAULT
100
AcDbVertex
100
AcDb2dVertex
 10
6.473059432662814
 20
36.63404281089667
 30
0.0
  0
VERTEX
  5
2A8
330
248
100
AcDbEntity
  8
DEFAULT
100
AcDbVertex
100
AcDb2dVertex
 10
6.514847636648129
 20
36.59537977852973
 30
0.0
  0
VERTEX
  5
2A9
330
248
100
AcDbEntity
  8
DEFAULT
100
AcDbVertex
100
AcDb2dVertex
 10
6.555634918610391
 20
36.55563491861042
 30
0.0
  0
VERTEX
  5
2AA
330
248
100
AcDbEntity
  8
DEFAULT
100
AcDbVertex
100
AcDb2dVertex
 10
6.595379778529707
 20
36.51484763664816
 30
0.0
  0
VERTEX
  5
2AB
330
248
100
AcDbEntity
  8
DEFAULT
100
AcDbVertex
100
AcDb2dVertex
 10
6.634042810896653
 20
36.47305943266284
 30
0.0
  0
VERTEX
  5
2AC
330
248
100
AcDbEntity
  8
DEFAULT
100
AcDbVertex
100
AcDb2dVertex
 10
6.671586834810548
 20
36.43031376057425
 30
0.0
  0
VERTEX
  5
2AD
330
248
100
AcDbEntity
  8
DEFAULT
100
AcDbVertex
100
AcDb2dVertex
 10
6.707977012664643
 20
36.38665587807832
 30
0.0
  0
VERTEX
  5
2AE
330
248
100
AcDbEntity
  8
DEFAULT
100
AcDbVertex
100
AcDb2dVertex
 10
6.743180956626495
 20
36.3421326880956
 30
0.0
  0
VERTEX
  5
2AF
330
248
100
AcDbEntity
  8
DEFAULT
100
AcDbVertex
100
AcDb2dVertex
 10
6.777168822239818
 20
36.29679257295017
 30
0.0
  0
VERTEX
  5
2B0
330
248
100
AcDbEntity
  8
DEFAULT
100
AcDbVertex
100
AcDb2dVertex
 10
6.809913388599393
 20
36.25068522249552
 30
0.0
  0
VERTEX
  5
2B1
330
248
100
AcDbEntity
  8
DEFAULT
100
AcDbVertex
100
AcDb2dVertex
 10
6.841390124681025
 20
36.20386145744733
 30
0.0
  0
VERTEX
  5
2B2
330
248
100
AcDbEntity
  8
DEFAULT
100
AcDbVertex
100
AcDb2dVertex
 10
6.871577241542242
 20
36.15637304921082
 30
0.0
  0
VERTEX
  5
2B3
330
248
100
AcDbEntity
  8
DEFAULT
100
AcDbVertex
100
AcDb2dVertex
 10
6.900455730244342
 20
36.10827253750215
 30
0.0
  0
VERTEX
  5
2B4
330
248
100
AcDbEntity
  8
DEFAULT
100
AcDbVertex
100
AcDb2dVertex
 10
6.928009385480448
 20
36.05961304705978
 30
0.0
  0
VERTEX
  5
2B5
330
248
100
AcDbEntity
  8
DEFAULT
100
AcDbVertex
100
AcDb2dVertex
 10
6.954224815025451
 20
36.01044810472322
 30
0.0
  0
VERTEX
  5
2B6
330
248
100
AcDbEntity
  8
DEFAULT
100
AcDbVertex
100
AcDb2dVertex
 10
6.979091435250501
 20
35.96083145812266
 30
0.0
  0
VERTEX
  5
2B7
330
248
100
AcDbEntity
  8
DEFAULT
100
AcDbVertex
100
AcDb2dVertex
 10
7.002601453064853
 20
35.91081689717669
 30
0.0
  0
VERTEX
  5
2B8
330
248
100
AcDbEntity
  8
DEFAULT
100
AcDbVertex
100
AcDb2dVertex
 10
7.024749834760398
 20
35.86045807953541
 30
0.0
  0
VERTEX
  5
2B9
330
248
100
AcDbEntity
  8
DEFAULT
100
AcDbVertex
100
AcDb2dVertex
 10
7.045534262337342
 20
35.80980836103613
 30
0.0
  0
VERTEX
  5
2BA
330
248
100
AcDbEntity
  8
DEFAULT
100
AcDbVertex
100
AcDb2dVertex
 10
7.064955077982314
 20
35.75892063215797
 30
0.0
  0
VERTEX
  5
2BB
330
248
100
AcDbEntity
  8
DEFAULT
100
AcDbVertex
100
AcDb2dVertex
 10
7.083015217451688
 20
35.70784716137363
 30
0.0
  0
VERTEX
  5
2BC
330
248
100
AcDbEntity
  8
DEFAULT
100
AcDbVertex
100
AcDb2dVertex
 10
7.099720133182626
 20
35.6566394462013
 30
0.0
  0
VERTEX
  5
2BD
330
248
100
AcDbEntity
  8
DEFAULT
100
AcDbVertex
100
AcDb2dVertex
 10
7.115077708011466
 20
35.60534807265983
 30
-0.0000000000000001
  0
VERTEX
  5
2BE
330
248
100
AcDbEntity
  8
DEFAULT
100
AcDbVertex
100
AcDb2dVertex
 10
7.129098160423969
 20
35.55402258372676
 30
-0.0000000000000001
  0
VERTEX
  5
2BF
330
248
100
AcDbEntity
  8
DEFAULT
100
AcDbVertex
100
AcDb2dVertex
 10
7.141793942294036
 20
35.5027113572942
 30
-0.0000000000000001
  0
VERTEX
  5
2C0
330
248
100
AcDbEntity
  8
DEFAULT
100
AcDbVertex
100
AcDb2dVertex
 10
7.153179630087601
 20
35.45146149401231
 30
-0.0000000000000001
  0
VERTEX
  5
2C1
330
248
100
AcDbEntity
  8
DEFAULT
100
AcDbVertex
100
AcDb2dVertex
 10
7.16327181051646
 20
35.40031871530672
 30
-0.0000000000000001
  0
VERTEX
  5
2C2
330
248
100
AcDbEntity
  8
DEFAULT
100
AcDbVertex
100
AcDb2dVertex
 10
7.172088961623878
 20
35.34932727175487
 30
-0.0000000000000001
  0
VERTEX
  5
2C3
330
248
100
AcDbEntity
  8
DEFAULT
100
AcDbVertex
100
AcDb2dVertex
 10
7.179651330270133
 20
35.29852986190939
 30
-0.0000000000000001
  0
VERTEX
  5
2C4
330
248
100
AcDbEntity
  8
DEFAULT
100
AcDbVertex
100
AcDb2dVertex
 10
7.185980806963258
 20
35.24796756156452
 30
-0.0000000000000001
  0
VERTEX
  5
2C5
330
248
100
AcDbEntity
  8
DEFAULT
100
AcDbVertex
100
AcDb2dVertex
 10
7.19110079894833
 20
35.19767976337496
 30
-0.0000000000000001
  0
VERTEX
  5
2C6
330
248
100
AcDbEntity
  8
DEFAULT
100
AcDbVertex
100
AcDb2dVertex
 10
7.195036102429428
 20
35.14770412665669
 30
-0.0000000000000001
  0
VERTEX
  5
2C7
330
248
100
AcDbEntity
  8
DEFAULT
100
AcDbVertex
100
AcDb2dVertex
 10
7.197812774752473
 20
35.09807653712706
 30
-0.0000000000000002
  0
VERTEX
  5
2C8
330
248
100
AcDbEntity
  8
DEFAULT
100
AcDbVertex
100
AcDb2dVertex
 10
7.199458007325845
 20
35.04883107627553
 30
-0.0000000000000002
  0
VERTEX
  5
2C9
330
248
100
AcDbEntity
  8
DEFAULT
100
AcDbVertex
100
AcDb2dVertex
 10
7.2
 20
35.0
 30
-0.0000000000000002
  0
SEQEND
  5
2CA
330
248
100
AcDbEntity
  8
DEFAULT
  0
POLYLINE
  5
2CB
330
1F
100
AcDbEntity
  8
DEFAULT
100
AcDb2dPolyline
 66
     1
 10
0.0
 20
0.0
 30
-0.0000000000000002
  0
VERTEX
  5
2CC
330
2CB
100
AcDbEntity
  8
DEFAULT
100
AcDbVertex
100
AcDb2dVertex
 10
7.2
 20
35.0
 30
-0.0000000000000002
  0
VERTEX
  5
2CD
330
2CB
100
AcDbEntity
  8
DEFAULT
100
AcDbVertex
100
AcDb2dVertex
 10
7.199458007325845
 20
34.95116892372447
 30
-0.0000000000000002
  0
VERTEX
  5
2CE
330
2CB
100
AcDbEntity
  8
DEFAULT
100
AcDbVertex
100
AcDb2dVertex
 10
7.197812774752473
 20
34.90192346287295
 30
-0.0000000000000002
  0
VERTEX
  5
2CF
330
2CB
100
AcDbEntity
  8
DEFAULT
100
AcDbVertex
100
AcDb2dVertex
 10
7.195036102429428
 20
34.85229587334332
 30
-0.0000000000000001
  0
VERTEX
  5
2D0
330
2CB
100
AcDbEntity
  8
DEFAULT
100
AcDbVertex
100
AcDb2dVertex
 10
7.19110079894833
 20
34.80232023662506
 30
-0.0000000000000001
  0
VERTEX
  5
2D1
330
2CB
100
AcDbEntity
  8
DEFAULT
100
AcDbVertex
100
AcDb2dVertex
 10
7.185980806963258
 20
34.7520324384355
 30
-0.0000000000000001
  0
VERTEX
  5
2D2
330
2CB
100
AcDbEntity
  8
DEFAULT
100
AcDbVertex
100
AcDb2dVertex
 10
7.179651330270133
 20
34.70147013809063
 30
-0.0000000000000001
  0
VERTEX
  5
2D3
330
2CB
100
AcDbEntity
  8
DEFAULT
100
AcDbVertex
100
AcDb2dVertex
 10
7.172088961623878
 20
34.65067272824515
 30
-0.0000000000000001
  0
VERTEX
  5
2D4
330
2CB
100
AcDbEntity
  8
DEFAULT
100
AcDbVertex
100
AcDb2dVertex
 10
7.16327181051646
 20
34.59968128469328
 30
-0.0000000000000001
  0
VERTEX
  5
2D5
330
2CB
100
AcDbEntity
  8
DEFAULT
100
AcDbVertex
100
AcDb2dVertex
 10
7.153179630087601
 20
34.54853850598771
 30
-0.0000000000000001
  0
VERTEX
  5
2D6
330
2CB
100
AcDbEntity
  8
DEFAULT
100
AcDbVertex
100
AcDb2dVertex
 10
7.141793942294036
 20
34.49728864270583
 30
-0.0000000000000001
  0
VERTEX
  5
2D7
330
2CB
100
AcDbEntity
  8
DEFAULT
100
AcDbVertex
100
AcDb2dVertex
 10
7.129098160423969
 20
34.44597741627325
 30
-0.0000000000000001
  0
VERTEX
  5
2D8
330
2CB
100
AcDbEntity
  8
DEFAULT
100
AcDbVertex
100
AcDb2dVertex
 10
7.115077708011466
 20
34.39465192734019
 30
-0.0000000000000001
  0
VERTEX
  5
2D9
330
2CB
100
AcDbEntity
  8
DEFAULT
100
AcDbVertex
100
AcDb2dVertex
 10
7.099720133182626
 20
34.34336055379873
 30
0.0
  0
VERTEX
  5
2DA
330
2CB
100
AcDbEntity
  8
DEFAULT
100
AcDbVertex
100
AcDb2dVertex
 10
7.083015217451688
 20
34.29215283862639
 30
0.0
  0
VERTEX
  5
2DB
330
2CB
100
AcDbEntity
  8
DEFAULT
100
AcDbVertex
100
AcDb2dVertex
 10
7.064955077982314
 20
34.24107936784205
 30
0.0
  0
VERTEX
  5
2DC
330
2CB
100
AcDbEntity
  8
DEFAULT
100
AcDbVertex
100
AcDb2dVertex
 10
7.045534262337342
 20
34.19019163896389
 30
0.0
  0
VERTEX
  5
2DD
330
2CB
100
AcDbEntity
  8
DEFAULT
100
AcDbVertex
100
AcDb2dVertex
 10
7.024749834760398
 20
34.13954192046462
 30
0.0
  0
VERTEX
  5
2DE
330
2CB
100
AcDbEntity
  8
DEFAULT
100
AcDbVertex
100
AcDb2dVertex
 10
7.002601453064853
 20
34.08918310282334
 30
0.0
  0
VERTEX
  5
2DF
330
2CB
100
AcDbEntity
  8
DEFAULT
100
AcDbVertex
100
AcDb2dVertex
 10
6.9790914352505
 20
34.03916854187737
 30
0.0
  0
VERTEX
  5
2E0
330
2CB
100
AcDbEntity
  8
DEFAULT
100
AcDbVertex
100
AcDb2dVertex
 10
6.95422481502545
 20
33.9895518952768
 30
0.0
  0
VERTEX
  5
2E1
330
2CB
100
AcDbEntity
  8
DEFAULT
100
AcDbVertex
100
AcDb2dVertex
 10
6.928009385480446
 20
33.94038695294024
 30
0.0
  0
VERTEX
  5
2E2
330
2CB
100
AcDbEntity
  8
DEFAULT
100
AcDbVertex
100
AcDb2dVertex
 10
6.900455730244341
 20
33.89172746249787
 30
0.0
  0
VERTEX
  5
2E3
330
2CB
100
AcDbEntity
  8
DEFAULT
100
AcDbVertex
100
AcDb2dVertex
 10
6.871577241542241
 20
33.8436269507892
 30
0.0
  0
VERTEX
  5
2E4
330
2CB
100
AcDbEntity
  8
DEFAULT
100
AcDbVertex
100
AcDb2dVertex
 10
6.841390124681024
 20
33.79613854255269
 30
0.0
  0
VERTEX
  5
2E5
330
2CB
100
AcDbEntity
  8
DEFAULT
100
AcDbVertex
100
AcDb2dVertex
 10
6.809913388599393
 20
33.74931477750449
 30
0.0
  0
VERTEX
  5
2E6
330
2CB
100
AcDbEntity
  8
DEFAULT
100
AcDbVertex
100
AcDb2dVertex
 10
6.777168822239817
 20
33.70320742704983
 30
0.0
  0
VERTEX
  5
2E7
330
2CB
100
AcDbEntity
  8
DEFAULT
100
AcDbVertex
100
AcDb2dVertex
 10
6.743180956626495
 20
33.6578673119044
 30
0.0
  0
VERTEX
  5
2E8
330
2CB
100
AcDbEntity
  8
DEFAULT
100
AcDbVertex
100
AcDb2dVertex
 10
6.707977012664643
 20
33.61334412192168
 30
0.0
  0
VERTEX
  5
2E9
330
2CB
100
AcDbEntity
  8
DEFAULT
100
AcDbVertex
100
AcDb2dVertex
 10
6.671586834810548
 20
33.56968623942576
 30
0.0
  0
VERTEX
  5
2EA
330
2CB
100
AcDbEntity
  8
DEFAULT
100
AcDbVertex
100
AcDb2dVertex
 10
6.634042810896652
 20
33.52694056733716
 30
0.0
  0
VERTEX
  5
2EB
330
2CB
100
AcDbEntity
  8
DEFAULT
100
AcDbVertex
100
AcDb2dVertex
 10
6.595379778529706
 20
33.48515236335186
 30
0.0
  0
VERTEX
  5
2EC
330
2CB
100
AcDbEntity
  8
DEFAULT
100
AcDbVertex
100
AcDb2dVertex
 10
6.55563491861039
 20
33.44436508138959
 30
0.0
  0
VERTEX
  5
2ED
330
2CB
100
AcDbEntity
  8
DEFAULT
100
AcDbVertex
100
AcDb2dVertex
 10
6.514847636648129
 20
33.40462022147027
 30
0.0
  0
VERTEX
  5
2EE
330
2CB
100
AcDbEntity
  8
DEFAULT
100
AcDbVertex
100
AcDb2dVertex
 10
6.473059432662814
 20
33.36595718910332
 30
0.0
  0
VERTEX
  5
2EF
330
2CB
100
AcDbEntity
  8
DEFAULT
100
AcDbVertex
100
AcDb2dVertex
 10
6.430313760574225
 20
33.32841316518943
 30
0.0
  0
VERTEX
  5
2F0
330
2CB
100
AcDbEntity
  8
DEFAULT
100
AcDbVertex
100
AcDb2dVertex
 10
6.386655878078294
 20
33.29202298733533
 30
0.0
  0
VERTEX
  5
2F1
330
2CB
100
AcDbEntity
  8
DEFAULT
100
AcDbVertex
100
AcDb2dVertex
 10
6.342132688095579
 20
33.25681904337348
 30
0.0
  0
VERTEX
  5
2F2
330
2CB
100
AcDbEntity
  8
DEFAULT
100
AcDbVertex
100
AcDb2dVertex
 10
6.296792572950151
 20
33.22283117776016
 30
0.0
  0
VERTEX
  5
2F3
330
2CB
100
AcDbEntity
  8
DEFAULT
100
AcDbVertex
100
AcDb2dVertex
 10
6.250685222495492
 20
33.19008661140059
 30
0.0
  0
VERTEX
  5
2F4
330
2CB
100
AcDbEntity
  8
DEFAULT
100
AcDbVertex
100
AcDb2dVertex
 10
6.203861457447302
 20
33.15860987531896
 30
0.0
  0
VERTEX
  5
2F5
330
2CB
100
AcDbEntity
  8
DEFAULT
100
AcDbVertex
100
AcDb2dVertex
 10
6.1563730492108
 20
33.12842275845774
 30
0.0
  0
VERTEX
  5
2F6
330
2CB
100
AcDbEntity
  8
DEFAULT
100
AcDbVertex
100
AcDb2dVertex
 10
6.108272537502123
 20
33.09954426975563
 30
0.0
  0
VERTEX
  5
2F7
330
2CB
100
AcDbEntity
  8
DEFAULT
100
AcDbVertex
100
AcDb2dVertex
 10
6.059613047059758
 20
33.07199061451954
 30
0.0
  0
VERTEX
  5
2F8
330
2CB
100
AcDbEntity
  8
DEFAULT
100
AcDbVertex
100
AcDb2dVertex
 10
6.010448104723199
 20
33.04577518497454
 30
0.0
  0
VERTEX
  5
2F9
330
2CB
100
AcDbEntity
  8
DEFAULT
100
AcDbVertex
100
AcDb2dVertex
 10
5.960831458122639
 20
33.02090856474949
 30
0.0
  0
VERTEX
  5
2FA
330
2CB
100
AcDbEntity
  8
DEFAULT
100
AcDbVertex
100
AcDb2dVertex
 10
5.910816897176654
 20
32.99739854693514
 30
0.0
  0
VERTEX
  5
2FB
330
2CB
100
AcDbEntity
  8
DEFAULT
100
AcDbVertex
100
AcDb2dVertex
 10
5.860458079535381
 20
32.97525016523959
 30
0.0
  0
VERTEX
  5
2FC
330
2CB
100
AcDbEntity
  8
DEFAULT
100
AcDbVertex
100
AcDb2dVertex
 10
5.809808361036113
 20
32.95446573766264
 30
0.0
  0
VERTEX
  5
2FD
330
2CB
100
AcDbEntity
  8
DEFAULT
100
AcDbVertex
100
AcDb2dVertex
 10
5.75892063215796
 20
32.93504492201767
 30
0.0
  0
VERTEX
  5
2FE
330
2CB
100
AcDbEntity
  8
DEFAULT
100
AcDbVertex
100
AcDb2dVertex
 10
5.70784716137361
 20
32.91698478254829
 30
0.0
  0
VERTEX
  5
2FF
330
2CB
100
AcDbEntity
  8
DEFAULT
100
AcDbVertex
100
AcDb2dVertex
 10
5.656639446201277
 20
32.90027986681736
 30
0.0
  0
VERTEX
  5
300
330
2CB
100
AcDbEntity
  8
DEFAULT
100
AcDbVertex
100
AcDb2dVertex
 10
5.605348072659809
 20
32.88492229198852
 30
-0.0000000000000001
  0
VERTEX
  5
301
330
2CB
100
AcDbEntity
  8
DEFAULT
100
AcDbVertex
100
AcDb2dVertex
 10
5.554022583726743
 20
32.87090183957602
 30
-0.0000000000000001
  0
VERTEX
  5
302
330
2CB
100
AcDbEntity
  8
DEFAULT
100
AcDbVertex
100
AcDb2dVertex
 10
5.502711357294179
 20
32.85820605770595
 30
-0.0000000000000001
  0
VERTEX
  5
303
330
2CB
100
AcDbEntity
  8
DEFAULT
100
AcDbVertex
100
AcDb2dVertex
 10
5.451461494012297
 20
32.8468203699124
 30
-0.0000000000000001
  0
VERTEX
  5
304
330
2CB
100
AcDbEntity
  8
DEFAULT
100
AcDbVertex
100
AcDb2dVertex
 10
5.400318715306716
 20
32.83672818948352
 30
-0.0000000000000001
  0
VERTEX
  5
305
330
2CB
100
AcDbEntity
  8
DEFAULT
100
AcDbVertex
100
AcDb2dVertex
 10
5.349327271754857
 20
32.82791103837612
 30
-0.0000000000000001
  0
VERTEX
  5
306
330
2CB
100
AcDbEntity
  8
DEFAULT
100
AcDbVertex
100
AcDb2dVertex
 10
5.298529861909369
 20
32.82034866972986
 30
-0.0000000000000001
  0
VERTEX
  5
307
330
2CB
100
AcDbEntity
  8
DEFAULT
100
AcDbVertex
100
AcDb2dVertex
 10
5.24796756156451
 20
32.81401919303675
 30
-0.0000000000000001
  0
VERTEX
  5
308
330
2CB
100
AcDbEntity
  8
DEFAULT
100
AcDbVertex
100
AcDb2dVertex
 10
5.19767976337495
 20
32.80889920105167
 30
-0.0000000000000001
  0
VERTEX
  5
309
330
2CB
100
AcDbEntity
  8
DEFAULT
100
AcDbVertex
100
AcDb2dVertex
 10
5.147704126656691
 20
32.80496389757057
 30
-0.0000000000000001
  0
VERTEX
  5
30A
330
2CB
100
AcDbEntity
  8
DEFAULT
100
AcDbVertex
100
AcDb2dVertex
 10
5.098076537127048
 20
32.80218722524753
 30
-0.0000000000000002
  0
VERTEX
  5
30B
330
2CB
100
AcDbEntity
  8
DEFAULT
100
AcDbVertex
100
AcDb2dVertex
 10
5.048831076275534
 20
32.80054199267416
 30
-0.0000000000000002
  0
VERTEX
  5
30C
330
2CB
100
AcDbEntity
  8
DEFAULT
100
AcDbVertex
100
AcDb2dVertex
 10
5.000000000000001
 20
32.8
 30
-0.0000000000000002
  0
VERTEX
  5
30D
330
2CB
100
AcDbEntity
  8
DEFAULT
100
AcDbVertex
100
AcDb2dVertex
 10
4.951168923724469
 20
32.80054199267416
 30
-0.0000000000000002
  0
VERTEX
  5
30E
330
2CB
100
AcDbEntity
  8
DEFAULT
100
AcDbVertex
100
AcDb2dVertex
 10
4.901923462872953
 20
32.80218722524753
 30
-0.0000000000000002
  0
VERTEX
  5
30F
330
2CB
100
AcDbEntity
  8
DEFAULT
100
AcDbVertex
100
AcDb2dVertex
 10
4.852295873343309
 20
32.80496389757057
 30
-0.0000000000000001
  0
VERTEX
  5
310
330
2CB
100
AcDbEntity
  8
DEFAULT
100
AcDbVertex
100
AcDb2dVertex
 10
4.802320236625049
 20
32.80889920105167
 30
-0.0000000000000001
  0
VERTEX
  5
311
330
2CB
100
AcDbEntity
  8
DEFAULT
100
AcDbVertex
100
AcDb2dVertex
 10
4.75203243843549
 20
32.81401919303674
 30
-0.0000000000000001
  0
VERTEX
  5
312
330
2CB
100
AcDbEntity
  8
DEFAULT
100
AcDbVertex
100
AcDb2dVertex
 10
4.701470138090631
 20
32.82034866972986
 30
-0.0000000000000001
  0
VERTEX
  5
313
330
2CB
100
AcDbEntity
  8
DEFAULT
100
AcDbVertex
100
AcDb2dVertex
 10
4.650672728245143
 20
32.82791103837612
 30
-0.0000000000000001
  0
VERTEX
  5
314
330
2CB
100
AcDbEntity
  8
DEFAULT
100
AcDbVertex
100
AcDb2dVertex
 10
4.599681284693281
 20
32.83672818948353
 30
-0.0000000000000001
  0
VERTEX
  5
315
330
2CB
100
AcDbEntity
  8
DEFAULT
100
AcDbVertex
100
AcDb2dVertex
 10
4.548538505987701
 20
32.8468203699124
 30
-0.0000000000000001
  0
VERTEX
  5
316
330
2CB
100
AcDbEntity
  8
DEFAULT
100
AcDbVertex
100
AcDb2dVertex
 10
4.497288642705819
 20
32.85820605770596
 30
-0.0000000000000001
  0
VERTEX
  5
317
330
2CB
100
AcDbEntity
  8
DEFAULT
100
AcDbVertex
100
AcDb2dVertex
 10
4.445977416273253
 20
32.87090183957603
 30
-0.0000000000000001
  0
VERTEX
  5
318
330
2CB
100
AcDbEntity
  8
DEFAULT
100
AcDbVertex
100
AcDb2dVertex
 10
4.394651927340186
 20
32.88492229198853
 30
-0.0000000000000001
  0
VERTEX
  5
319
330
2CB
100
AcDbEntity
  8
DEFAULT
100
AcDbVertex
100
AcDb2dVertex
 10
4.343360553798719
 20
32.90027986681738
 30
0.0
  0
VERTEX
  5
31A
330
2CB
100
AcDbEntity
  8
DEFAULT
100
AcDbVertex
100
AcDb2dVertex
 10
4.292152838626385
 20
32.91698478254831
 30
0.0
  0
VERTEX
  5
31B
330
2CB
100
AcDbEntity
  8
DEFAULT
100
AcDbVertex
100
AcDb2dVertex
 10
4.241079367842035
 20
32.93504492201769
 30
0.0
  0
VERTEX
  5
31C
330
2CB
100
AcDbEntity
  8
DEFAULT
100
AcDbVertex
100
AcDb2dVertex
 10
4.19019163896388
 20
32.95446573766266
 30
0.0
  0
VERTEX
  5
31D
330
2CB
100
AcDbEntity
  8
DEFAULT
100
AcDbVertex
100
AcDb2dVertex
 10
4.139541920464612
 20
32.9752501652396
 30
0.0
  0
VERTEX
  5
31E
330
2CB
100
AcDbEntity
  8
DEFAULT
100
AcDbVertex
100
AcDb2dVertex
 10
4.089183102823338
 20
32.99739854693514
 30
0.0
  0
VERTEX
  5
31F
330
2CB
100
AcDbEntity
  8
DEFAULT
100
AcDbVertex
100
AcDb2dVertex
 10
4.039168541877353
 20
33.02090856474949
 30
0.0
  0
VERTEX
  5
320
330
2CB
100
AcDbEntity
  8
DEFAULT
100
AcDbVertex
100
AcDb2dVertex
 10
3.989551895276791
 20
33.04577518497454
 30
0.0
  0
VERTEX
  5
321
330
2CB
100
AcDbEntity
  8
DEFAULT
100
AcDbVertex
100
AcDb2dVertex
 10
3.940386952940231
 20
33.07199061451955
 30
0.0
  0
VERTEX
  5
322
330
2CB
100
AcDbEntity
  8
DEFAULT
100
AcDbVertex
100
AcDb2dVertex
 10
3.891727462497865
 20
33.09954426975564
 30
0.0
  0
VERTEX
  5
323
330
2CB
100
AcDbEntity
  8
DEFAULT
100
AcDbVertex
100
AcDb2dVertex
 10
3.843626950789186
 20
33.12842275845776
 30
0.0
  0
VERTEX
  5
324
330
2CB
100
AcDbEntity
  8
DEFAULT
100
AcDbVertex
100
AcDb2dVertex
 10
3.796138542552683
 20
33.15860987531897
 30
0.0
  0
VERTEX
  5
325
330
2CB
100
AcDbEntity
  8
DEFAULT
100
AcDbVertex
100
AcDb2dVertex
 10
3.749314777504492
 20
33.19008661140061
 30
0.0
  0
VERTEX
  5
326
330
2CB
100
AcDbEntity
  8
DEFAULT
100
AcDbVertex
100
AcDb2dVertex
 10
3.703207427049833
 20
33.22283117776018
 30
0.0
  0
VERTEX
  5
327
330
2CB
100
AcDbEntity
  8
DEFAULT
100
AcDbVertex
100
AcDb2dVertex
 10
3.657867311904404
 20
33.2568190433735
 30
0.0
  0
VERTEX
  5
328
330
2CB
100
AcDbEntity
  8
DEFAULT
100
AcDbVertex
100
AcDb2dVertex
 10
3.613344121921688
 20
33.29202298733534
 30
0.0
  0
VERTEX
  5
329
330
2CB
100
AcDbEntity
  8
DEFAULT
100
AcDbVertex
100
AcDb2dVertex
 10
3.569686239425758
 20
33.32841316518945
 30
0.0
  0
VERTEX
  5
32A
330
2CB
100
AcDbEntity
  8
DEFAULT
100
AcDbVertex
100
AcDb2dVertex
 10
3.526940567337169
 20
33.36595718910334
 30
0.0
  0
VERTEX
  5
32B
330
2CB
100
AcDbEntity
  8
DEFAULT
100
AcDbVertex
100
AcDb2dVertex
 10
3.485152363351852
 20
33.40462022147029
 30
0.0
  0
VERTEX
  5
32C
330
2CB
100
AcDbEntity
  8
DEFAULT
100
AcDbVertex
100
AcDb2dVertex
 10
3.44436508138959
 20
33.44436508138961
 30
0.0
  0
VERTEX
  5
32D
330
2CB
100
AcDbEntity
  8
DEFAULT
100
AcDbVertex
100
AcDb2dVertex
 10
3.404620221470275
 20
33.48515236335187
 30
0.0
  0
VERTEX
  5
32E
330
2CB
100
AcDbEntity
  8
DEFAULT
100
AcDbVertex
100
AcDb2dVertex
 10
3.365957189103332
 20
33.52694056733718
 30
0.0
  0
VERTEX
  5
32F
330
2CB
100
AcDbEntity
  8
DEFAULT
100
AcDbVertex
100
AcDb2dVertex
 10
3.328413165189438
 20
33.56968623942577
 30
0.0
  0
VERTEX
  5
330
330
2CB
100
AcDbEntity
  8
DEFAULT
100
AcDbVertex
100
AcDb2dVertex
 10
3.292022987335341
 20
33.61334412192169
 30
0.0
  0
VERTEX
  5
331
330
2CB
100
AcDbEntity
  8
DEFAULT
100
AcDbVertex
100
AcDb2dVertex
 10
3.256819043373491
 20
33.65786731190441
 30
0.0
  0
VERTEX
  5
332
330
2CB
100
AcDbEntity
  8
DEFAULT
100
AcDbVertex
100
AcDb2dVertex
 10
3.22283117776017
 20
33.70320742704983
 30
0.0
  0
VERTEX
  5
333
330
2CB
100
AcDbEntity
  8
DEFAULT
100
AcDbVertex
100
AcDb2dVertex
 10
3.190086611400595
 20
33.74931477750449
 30
0.0
  0
VERTEX
  5
334
330
2CB
100
AcDbEntity
  8
DEFAULT
100
AcDbVertex
100
AcDb2dVertex
 10
3.158609875318964
 20
33.79613854255269
 30
0.0
  0
VERTEX
  5
335
330
2CB
100
AcDbEntity
  8
DEFAULT
100
AcDbVertex
100
AcDb2dVertex
 10
3.12842275845775
 20
33.84362695078919
 30
0.0
  0
VERTEX
  5
336
330
2CB
100
AcDbEntity
  8
DEFAULT
100
AcDbVertex
100
AcDb2dVertex
 10
3.099544269755649
 20
33.89172746249786
 30
0.0
  0
VERTEX
  5
337
330
2CB
100
AcDbEntity
  8
DEFAULT
100
AcDbVertex
100
AcDb2dVertex
 10
3.071990614519546
 20
33.94038695294024
 30
0.0
  0
VERTEX
  5
338
330
2CB
100
AcDbEntity
  8
DEFAULT
100
AcDbVertex
100
AcDb2dVertex
 10
3.045775184974543
 20
33.9895518952768
 30
0.0
  0
VERTEX
  5
339
330
2CB
100
AcDbEntity
  8
DEFAULT
100
AcDbVertex
100
AcDb2dVertex
 10
3.020908564749494
 20
34.03916854187737
 30
0.0
  0
VERTEX
  5
33A
330
2CB
100
AcDbEntity
  8
DEFAULT
100
AcDbVertex
100
AcDb2dVertex
 10
2.997398546935142
 20
34.08918310282335
 30
0.0
  0
VERTEX
  5
33B
330
2CB
100
AcDbEntity
  8
DEFAULT
100
AcDbVertex
100
AcDb2dVertex
 10
2.975250165239599
 20
34.13954192046463
 30
0.0
  0
VERTEX
  5
33C
330
2CB
100
AcDbEntity
  8
DEFAULT
100
AcDbVertex
100
AcDb2dVertex
 10
2.954465737662654
 20
34.19019163896389
 30
0.0
  0
VERTEX
  5
33D
330
2CB
100
AcDbEntity
  8
DEFAULT
100
AcDbVertex
100
AcDb2dVertex
 10
2.935044922017684
 20
34.24107936784205
 30
0.0
  0
VERTEX
  5
33E
330
2CB
100
AcDbEntity
  8
DEFAULT
100
AcDbVertex
100
AcDb2dVertex
 10
2.91698478254831
 20
34.29215283862639
 30
0.0
  0
VERTEX
  5
33F
330
2CB
100
AcDbEntity
  8
DEFAULT
100
AcDbVertex
100
AcDb2dVertex
 10
2.900279866817373
 20
34.34336055379872
 30
0.0
  0
VERTEX
  5
340
330
2CB
100
AcDbEntity
  8
DEFAULT
100
AcDbVertex
100
AcDb2dVertex
 10
2.884922291988532
 20
34.39465192734019
 30
-0.0000000000000001
  0
VERTEX
  5
341
330
2CB
100
AcDbEntity
  8
DEFAULT
100
AcDbVertex
100
AcDb2dVertex
 10
2.87090183957603
 20
34.44597741627325
 30
-0.0000000000000001
  0
VERTEX
  5
342
330
2CB
100
AcDbEntity
  8
DEFAULT
100
AcDbVertex
100
AcDb2dVertex
 10
2.858206057705963
 20
34.49728864270582
 30
-0.0000000000000001
  0
VERTEX
  5
343
330
2CB
100
AcDbEntity
  8
DEFAULT
100
AcDbVertex
100
AcDb2dVertex
 10
2.8468203699124
 20
34.54853850598771
 30
-0.0000000000000001
  0
VERTEX
  5
344
330
2CB
100
AcDbEntity
  8
DEFAULT
100
AcDbVertex
100
AcDb2dVertex
 10
2.836728189483538
 20
34.59968128469328
 30
-0.0000000000000001
  0
VERTEX
  5
345
330
2CB
100
AcDbEntity
  8
DEFAULT
100
AcDbVertex
100
AcDb2dVertex
 10
2.827911038376121
 20
34.65067272824515
 30
-0.0000000000000001
  0
VERTEX
  5
346
330
2CB
100
AcDbEntity
  8
DEFAULT
100
AcDbVertex
100
AcDb2dVertex
 10
2.820348669729866
 20
34.70147013809063
 30
-0.0000000000000001
  0
VERTEX
  5
347
330
2CB
100
AcDbEntity
  8
DEFAULT
100
AcDbVertex
100
AcDb2dVertex
 10
2.814019193036741
 20
34.75203243843551
 30
-0.0000000000000001
  0
VERTEX
  5
348
330
2CB
100
AcDbEntity
  8
DEFAULT
100
AcDbVertex
100
AcDb2dVertex
 10
2.808899201051668
 20
34.80232023662505
 30
-0.0000000000000001
  0
VERTEX
  5
349
330
2CB
100
AcDbEntity
  8
DEFAULT
100
AcDbVertex
100
AcDb2dVertex
 10
2.804963897570572
 20
34.85229587334332
 30
-0.0000000000000001
  0
VERTEX
  5
34A
330
2CB
100
AcDbEntity
  8
DEFAULT
100
AcDbVertex
100
AcDb2dVertex
 10
2.802187225247528
 20
34.90192346287295
 30
-0.0000000000000002
  0
VERTEX
  5
34B
330
2CB
100
AcDbEntity
  8
DEFAULT
100
AcDbVertex
100
AcDb2dVertex
 10
2.800541992674158
 20
34.95116892372447
 30
-0.0000000000000002
  0
VERTEX
  5
34C
330
2CB
100
AcDbEntity
  8
DEFAULT
100
AcDbVertex
100
AcDb2dVertex
 10
2.800000000000002
 20
35.0
 30
-0.0000000000000002
  0
SEQEND
  5
34D
330
2CB
100
AcDbEntity
  8
DEFAULT
  0
POLYLINE
  5
34E
330
1F
100
AcDbEntity
  8
DEFAULT
100
AcDb2dPolyline
 66
     1
 10
0.0
 20
0.0
 30
-0.0000000000000002
  0
VERTEX
  5
34F
330
34E
100
AcDbEntity
  8
DEFAULT
100
AcDbVertex
100
AcDb2dVertex
 10
2.800000000000002
 20
4.999999999999999
 30
-0.0000000000000002
  0
VERTEX
  5
350
330
34E
100
AcDbEntity
  8
DEFAULT
100
AcDbVertex
100
AcDb2dVertex
 10
2.800541992674158
 20
5.048831076275532
 30
-0.0000000000000002
  0
VERTEX
  5
351
330
34E
100
AcDbEntity
  8
DEFAULT
100
AcDbVertex
100
AcDb2dVertex
 10
2.802187225247528
 20
5.098076537127048
 30
-0.0000000000000002
  0
VERTEX
  5
352
330
34E
100
AcDbEntity
  8
DEFAULT
100
AcDbVertex
100
AcDb2dVertex
 10
2.804963897570572
 20
5.14770412665669
 30
-0.0000000000000001
  0
VERTEX
  5
353
330
34E
100
AcDbEntity
  8
DEFAULT
100
AcDbVertex
100
AcDb2dVertex
 10
2.808899201051668
 20
5.197679763374949
 30
-0.0000000000000001
  0
VERTEX
  5
354
330
34E
100
AcDbEntity
  8
DEFAULT
100
AcDbVertex
100
AcDb2dVertex
 10
2.81401919303674
 20
5.247967561564509
 30
-0.0000000000000001
  0
VERTEX
  5
355
330
34E
100
AcDbEntity
  8
DEFAULT
100
AcDbVertex
100
AcDb2dVertex
 10
2.820348669729865
 20
5.298529861909367
 30
-0.0000000000000001
  0
VERTEX
  5
356
330
34E
100
AcDbEntity
  8
DEFAULT
100
AcDbVertex
100
AcDb2dVertex
 10
2.82791103837612
 20
5.349327271754856
 30
-0.0000000000000001
  0
VERTEX
  5
357
330
34E
100
AcDbEntity
  8
DEFAULT
100
AcDbVertex
100
AcDb2dVertex
 10
2.836728189483537
 20
5.400318715306716
 30
-0.0000000000000001
  0
VERTEX
  5
358
330
34E
100
AcDbEntity
  8
DEFAULT
100
AcDbVertex
100
AcDb2dVertex
 10
2.846820369912399
 20
5.451461494012297
 30
-0.0000000000000001
  0
VERTEX
  5
359
330
34E
100
AcDbEntity
  8
DEFAULT
100
AcDbVertex
100
AcDb2dVertex
 10
2.858206057705961
 20
5.502711357294178
 30
-0.0000000000000001
  0
VERTEX
  5
35A
330
34E
100
AcDbEntity
  8
DEFAULT
100
AcDbVertex
100
AcDb2dVertex
 10
2.870901839576028
 20
5.554022583726743
 30
-0.0000000000000001
  0
VERTEX
  5
35B
330
34E
100
AcDbEntity
  8
DEFAULT
100
AcDbVertex
100
AcDb2dVertex
 10
2.88492229198853
 20
5.605348072659808
 30
-0.0000000000000001
  0
VERTEX
  5
35C
330
34E
100
AcDbEntity
  8
DEFAULT
100
AcDbVertex
100
AcDb2dVertex
 10
2.900279866817371
 20
5.656639446201277
 30
0.0
  0
VERTEX
  5
35D
330
34E
100
AcDbEntity
  8
DEFAULT
100
AcDbVertex
100
AcDb2dVertex
 10
2.916984782548307
 20
5.707847161373609
 30
0.0
  0
VERTEX
  5
35E
330
34E
100
AcDbEntity
  8
DEFAULT
100
AcDbVertex
100
AcDb2dVertex
 10
2.935044922017682
 20
5.75892063215796
 30
0.0
  0
VERTEX
  5
35F
330
34E
100
AcDbEntity
  8
DEFAULT
100
AcDbVertex
100
AcDb2dVertex
 10
2.954465737662651
 20
5.809808361036113
 30
0.0
  0
VERTEX
  5
360
330
34E
100
AcDbEntity
  8
DEFAULT
100
AcDbVertex
100
AcDb2dVertex
 10
2.975250165239596
 20
5.860458079535381
 30
0.0
  0
VERTEX
  5
361
330
34E
100
AcDbEntity
  8
DEFAULT
100
AcDbVertex
100
AcDb2dVertex
 10
2.997398546935139
 20
5.910816897176654
 30
0.0
  0
VERTEX
  5
362
330
34E
100
AcDbEntity
  8
DEFAULT
100
AcDbVertex
100
AcDb2dVertex
 10
3.02090856474949
 20
5.960831458122639
 30
0.0
  0
VERTEX
  5
363
330
34E
100
AcDbEntity
  8
DEFAULT
100
AcDbVertex
100
AcDb2dVertex
 10
3.04577518497454
 20
6.010448104723199
 30
0.0
  0
VERTEX
  5
364
330
34E
100
AcDbEntity
  8
DEFAULT
100
AcDbVertex
100
AcDb2dVertex
 10
3.071990614519542
 20
6.059613047059758
 30
0.0
  0
VERTEX
  5
365
330
34E
100
AcDbEntity
  8
DEFAULT
100
AcDbVertex
100
AcDb2dVertex
 10
3.099544269755645
 20
6.108272537502123
 30
0.0
  0
VERTEX
  5
366
330
34E
100
AcDbEntity
  8
DEFAULT
100
AcDbVertex
100
AcDb2dVertex
 10
3.128422758457746
 20
6.156373049210801
 30
0.0
  0
VERTEX
  5
367
330
34E
100
AcDbEntity
  8
DEFAULT
100
AcDbVertex
100
AcDb2dVertex
 10
3.15860987531896
 20
6.203861457447302
 30
0.0
  0
VERTEX
  5
368
330
34E
100
AcDbEntity
  8
DEFAULT
100
AcDbVertex
100
AcDb2dVertex
 10
3.19008661140059
 20
6.250685222495492
 30
0.0
  0
VERTEX
  5
369
330
34E
100
AcDbEntity
  8
DEFAULT
100
AcDbVertex
100
AcDb2dVertex
 10
3.222831177760165
 20
6.296792572950151
 30
0.0
  0
VERTEX
  5
36A
330
34E
100
AcDbEntity
  8
DEFAULT
100
AcDbVertex
100
AcDb2dVertex
 10
3.256819043373486
 20
6.342132688095579
 30
0.0
  0
VERTEX
  5
36B
330
34E
100
AcDbEntity
  8
DEFAULT
100
AcDbVertex
100
AcDb2dVertex
 10
3.292022987335336
 20
6.386655878078294
 30
0.0
  0
VERTEX
  5
36C
330
34E
100
AcDbEntity
  8
DEFAULT
100
AcDbVertex
100
AcDb2dVertex
 10
3.328413165189433
 20
6.430313760574225
 30
0.0
  0
VERTEX
  5
36D
330
34E
100
AcDbEntity
  8
DEFAULT
100
AcDbVertex
100
AcDb2dVertex
 10
3.365957189103326
 20
6.473059432662814
 30
0.0
  0
VERTEX
  5
36E
330
34E
100
AcDbEntity
  8
DEFAULT
100
AcDbVertex
100
AcDb2dVertex
 10
3.40462022147027
 20
6.51484763664813
 30
0.0
  0
VERTEX
  5
36F
330
34E
100
AcDbEntity
  8
DEFAULT
100
AcDbVertex
100
AcDb2dVertex
 10
3.444365081389584
 20
6.555634918610392
 30
0.0
  0
VERTEX
  5
370
330
34E
100
AcDbEntity
  8
DEFAULT
100
AcDbVertex
100
AcDb2dVertex
 10
3.485152363351847
 20
6.595379778529708
 30
0.0
  0
VERTEX
  5
371
330
34E
100
AcDbEntity
  8
DEFAULT
100
AcDbVertex
100
AcDb2dVertex
 10
3.526940567337163
 20
6.634042810896654
 30
0.0
  0
VERTEX
  5
372
330
34E
100
AcDbEntity
  8
DEFAULT
100
AcDbVertex
100
AcDb2dVertex
 10
3.569686239425752
 20
6.67158683481055
 30
0.0
  0
VERTEX
  5
373
330
34E
100
AcDbEntity
  8
DEFAULT
100
AcDbVertex
100
AcDb2dVertex
 10
3.613344121921683
 20
6.707977012664645
 30
0.0
  0
VERTEX
  5
374
330
34E
100
AcDbEntity
  8
DEFAULT
100
AcDbVertex
100
AcDb2dVertex
 10
3.657867311904399
 20
6.743180956626497
 30
0.0
  0
VERTEX
  5
375
330
34E
100
AcDbEntity
  8
DEFAULT
100
AcDbVertex
100
AcDb2dVertex
 10
3.703207427049828
 20
6.777168822239819
 30
0.0
  0
VERTEX
  5
376
330
34E
100
AcDbEntity
  8
DEFAULT
100
AcDbVertex
100
AcDb2dVertex
 10
3.749314777504488
 20
6.809913388599395
 30
0.0
  0
VERTEX
  5
377
330
34E
100
AcDbEntity
  8
DEFAULT
100
AcDbVertex
100
AcDb2dVertex
 10
3.796138542552679
 20
6.841390124681026
 30
0.0
  0
VERTEX
  5
378
330
34E
100
AcDbEntity
  8
DEFAULT
100
AcDbVertex
100
AcDb2dVertex
 10
3.843626950789182
 20
6.871577241542242
 30
0.0
  0
VERTEX
  5
379
330
34E
100
AcDbEntity
  8
DEFAULT
100
AcDbVertex
100
AcDb2dVertex
 10
3.891727462497861
 20
6.900455730244343
 30
0.0
  0
VERTEX
  5
37A
330
34E
100
AcDbEntity
  8
DEFAULT
100
AcDbVertex
100
AcDb2dVertex
 10
3.940386952940227
 20
6.928009385480448
 30
0.0
  0
VERTEX
  5
37B
330
34E
100
AcDbEntity
  8
DEFAULT
100
AcDbVertex
100
AcDb2dVertex
 10
3.989551895276787
 20
6.954224815025452
 30
0.0
  0
VERTEX
  5
37C
330
34E
100
AcDbEntity
  8
DEFAULT
100
AcDbVertex
100
AcDb2dVertex
 10
4.039168541877349
 20
6.979091435250502
 30
0.0
  0
VERTEX
  5
37D
330
34E
100
AcDbEntity
  8
DEFAULT
100
AcDbVertex
100
AcDb2dVertex
 10
4.089183102823335
 20
7.002601453064854
 30
0.0
  0
VERTEX
  5
37E
330
34E
100
AcDbEntity
  8
DEFAULT
100
AcDbVertex
100
AcDb2dVertex
 10
4.13954192046461
 20
7.024749834760399
 30
0.0
  0
VERTEX
  5
37F
330
34E
100
AcDbEntity
  8
DEFAULT
100
AcDbVertex
100
AcDb2dVertex
 10
4.190191638963877
 20
7.045534262337344
 30
0.0
  0
VERTEX
  5
380
330
34E
100
AcDbEntity
  8
DEFAULT
100
AcDbVertex
100
AcDb2dVertex
 10
4.241079367842033
 20
7.064955077982316
 30
0.0
  0
VERTEX
  5
381
330
34E
100
AcDbEntity
  8
DEFAULT
100
AcDbVertex
100
AcDb2dVertex
 10
4.292152838626384
 20
7.08301521745169
 30
0.0
  0
VERTEX
  5
382
330
34E
100
AcDbEntity
  8
DEFAULT
100
AcDbVertex
100
AcDb2dVertex
 10
4.343360553798717
 20
7.099720133182628
 30
0.0
  0
VERTEX
  5
383
330
34E
100
AcDbEntity
  8
DEFAULT
100
AcDbVertex
100
AcDb2dVertex
 10
4.394651927340185
 20
7.115077708011468
 30
-0.0000000000000001
  0
VERTEX
  5
384
330
34E
100
AcDbEntity
  8
DEFAULT
100
AcDbVertex
100
AcDb2dVertex
 10
4.445977416273251
 20
7.129098160423971
 30
-0.0000000000000001
  0
VERTEX
  5
385
330
34E
100
AcDbEntity
  8
DEFAULT
100
AcDbVertex
100
AcDb2dVertex
 10
4.497288642705818
 20
7.141793942294038
 30
-0.0000000000000001
  0
VERTEX
  5
386
330
34E
100
AcDbEntity
  8
DEFAULT
100
AcDbVertex
100
AcDb2dVertex
 10
4.548538505987701
 20
7.153179630087602
 30
-0.0000000000000001
  0
VERTEX
  5
387
330
34E
100
AcDbEntity
  8
DEFAULT
100
AcDbVertex
100
AcDb2dVertex
 10
4.59968128469328
 20
7.163271810516462
 30
-0.0000000000000001
  0
VERTEX
  5
388
330
34E
100
AcDbEntity
  8
DEFAULT
100
AcDbVertex
100
AcDb2dVertex
 10
4.650672728245142
 20
7.17208896162388
 30
-0.0000000000000001
  0
VERTEX
  5
389
330
34E
100
AcDbEntity
  8
DEFAULT
100
AcDbVertex
100
AcDb2dVertex
 10
4.70147013809063
 20
7.179651330270135
 30
-0.0000000000000001
  0
VERTEX
  5
38A
330
34E
100
AcDbEntity
  8
DEFAULT
100
AcDbVertex
100
AcDb2dVertex
 10
4.75203243843549
 20
7.18598080696326
 30
-0.0000000000000001
  0
VERTEX
  5
38B
330
34E
100
AcDbEntity
  8
DEFAULT
100
AcDbVertex
100
AcDb2dVertex
 10
4.802320236625049
 20
7.19110079894833
 30
-0.0000000000000001
  0
VERTEX
  5
38C
330
34E
100
AcDbEntity
  8
DEFAULT
100
AcDbVertex
100
AcDb2dVertex
 10
4.852295873343309
 20
7.195036102429428
 30
-0.0000000000000001
  0
VERTEX
  5
38D
330
34E
100
AcDbEntity
  8
DEFAULT
100
AcDbVertex
100
AcDb2dVertex
 10
4.901923462872953
 20
7.197812774752473
 30
-0.0000000000000002
  0
VERTEX
  5
38E
330
34E
100
AcDbEntity
  8
DEFAULT
100
AcDbVertex
100
AcDb2dVertex
 10
4.951168923724469
 20
7.199458007325844
 30
-0.0000000000000002
  0
VERTEX
  5
38F
330
34E
100
AcDbEntity
  8
DEFAULT
100
AcDbVertex
100
AcDb2dVertex
 10
5.000000000000001
 20
7.199999999999998
 30
-0.0000000000000002
  0
VERTEX
  5
390
330
34E
100
AcDbEntity
  8
DEFAULT
100
AcDbVertex
100
AcDb2dVertex
 10
5.048831076275534
 20
7.199458007325844
 30
-0.0000000000000002
  0
VERTEX
  5
391
330
34E
100
AcDbEntity
  8
DEFAULT
100
AcDbVertex
100
AcDb2dVertex
 10
5.098076537127048
 20
7.197812774752473
 30
-0.0000000000000002
  0
VERTEX
  5
392
330
34E
100
AcDbEntity
  8
DEFAULT
100
AcDbVertex
100
AcDb2dVertex
 10
5.147704126656691
 20
7.195036102429428
 30
-0.0000000000000001
  0
VERTEX
  5
393
330
34E
100
AcDbEntity
  8
DEFAULT
100
AcDbVertex
100
AcDb2dVertex
 10
5.19767976337495
 20
7.191100798948329
 30
-0.0000000000000001
  0
VERTEX
  5
394
330
34E
100
AcDbEntity
  8
DEFAULT
100
AcDbVertex
100
AcDb2dVertex
 10
5.24796756156451
 20
7.18598080696326
 30
-0.0000000000000001
  0
VERTEX
  5
395
330
34E
100
AcDbEntity
  8
DEFAULT
100
AcDbVertex
100
AcDb2dVertex
 10
5.298529861909369
 20
7.179651330270135
 30
-0.0000000000000001
  0
VERTEX
  5
396
330
34E
100
AcDbEntity
  8
DEFAULT
100
AcDbVertex
100
AcDb2dVertex
 10
5.349327271754857
 20
7.172088961623878
 30
-0.0000000000000001
  0
VERTEX
  5
397
330
34E
100
AcDbEntity
  8
DEFAULT
100
AcDbVertex
100
AcDb2dVertex
 10
5.400318715306716
 20
7.163271810516461
 30
-0.0000000000000001
  0
VERTEX
  5
398
330
34E
100
AcDbEntity
  8
DEFAULT
100
AcDbVertex
100
AcDb2dVertex
 10
5.451461494012297
 20
7.153179630087602
 30
-0.0000000000000001
  0
VERTEX
  5
399
330
34E
100
AcDbEntity
  8
DEFAULT
100
AcDbVertex
100
AcDb2dVertex
 10
5.502711357294179
 20
7.141793942294039
 30
-0.0000000000000001
  0
VERTEX
  5
39A
330
34E
100
AcDbEntity
  8
DEFAULT
100
AcDbVertex
100
AcDb2dVertex
 10
5.554022583726743
 20
7.129098160423971
 30
-0.0000000000000001
  0
VERTEX
  5
39B
330
34E
100
AcDbEntity
  8
DEFAULT
100
AcDbVertex
100
AcDb2dVertex
 10
5.605348072659809
 20
7.115077708011468
 30
-0.0000000000000001
  0
VERTEX
  5
39C
330
34E
100
AcDbEntity
  8
DEFAULT
100
AcDbVertex
100
AcDb2dVertex
 10
5.656639446201277
 20
7.099720133182629
 30
0.0
  0
VERTEX
  5
39D
330
34E
100
AcDbEntity
  8
DEFAULT
100
AcDbVertex
100
AcDb2dVertex
 10
5.70784716137361
 20
7.083015217451692
 30
0.0
  0
VERTEX
  5
39E
330
34E
100
AcDbEntity
  8
DEFAULT
100
AcDbVertex
100
AcDb2dVertex
 10
5.75892063215796
 20
7.064955077982318
 30
0.0
  0
VERTEX
  5
39F
330
34E
100
AcDbEntity
  8
DEFAULT
100
AcDbVertex
100
AcDb2dVertex
 10
5.809808361036113
 20
7.045534262337347
 30
0.0
  0
VERTEX
  5
3A0
330
34E
100
AcDbEntity
  8
DEFAULT
100
AcDbVertex
100
AcDb2dVertex
 10
5.860458079535381
 20
7.024749834760404
 30
0.0
  0
VERTEX
  5
3A1
330
34E
100
AcDbEntity
  8
DEFAULT
100
AcDbVertex
100
AcDb2dVertex
 10
5.910816897176654
 20
7.002601453064859
 30
0.0
  0
VERTEX
  5
3A2
330
34E
100
AcDbEntity
  8
DEFAULT
100
AcDbVertex
100
AcDb2dVertex
 10
5.960831458122639
 20
6.979091435250509
 30
0.0
  0
VERTEX
  5
3A3
330
34E
100
AcDbEntity
  8
DEFAULT
100
AcDbVertex
100
AcDb2dVertex
 10
6.010448104723199
 20
6.954224815025458
 30
0.0
  0
VERTEX
  5
3A4
330
34E
100
AcDbEntity
  8
DEFAULT
100
AcDbVertex
100
AcDb2dVertex
 10
6.059613047059758
 20
6.928009385480456
 30
0.0
  0
VERTEX
  5
3A5
330
34E
100
AcDbEntity
  8
DEFAULT
100
AcDbVertex
100
AcDb2dVertex
 10
6.108272537502123
 20
6.900455730244352
 30
0.0
  0
VERTEX
  5
3A6
330
34E
100
AcDbEntity
  8
DEFAULT
100
AcDbVertex
100
AcDb2dVertex
 10
6.1563730492108
 20
6.87157724154225
 30
0.0
  0
VERTEX
  5
3A7
330
34E
100
AcDbEntity
  8
DEFAULT
100
AcDbVertex
100
AcDb2dVertex
 10
6.203861457447302
 20
6.841390124681035
 30
0.0
  0
VERTEX
  5
3A8
330
34E
100
AcDbEntity
  8
DEFAULT
100
AcDbVertex
100
AcDb2dVertex
 10
6.250685222495492
 20
6.809913388599406
 30
0.0
  0
VERTEX
  5
3A9
330
34E
100
AcDbEntity
  8
DEFAULT
100
AcDbVertex
100
AcDb2dVertex
 10
6.296792572950151
 20
6.777168822239831
 30
0.0
  0
VERTEX
  5
3AA
330
34E
100
AcDbEntity
  8
DEFAULT
100
AcDbVertex
100
AcDb2dVertex
 10
6.342132688095579
 20
6.743180956626511
 30
0.0
  0
VERTEX
  5
3AB
330
34E
100
AcDbEntity
  8
DEFAULT
100
AcDbVertex
100
AcDb2dVertex
 10
6.386655878078294
 20
6.707977012664661
 30
0.0
  0
VERTEX
  5
3AC
330
34E
100
AcDbEntity
  8
DEFAULT
100
AcDbVertex
100
AcDb2dVertex
 10
6.430313760574225
 20
6.671586834810567
 30
0.0
  0
VERTEX
  5
3AD
330
34E
100
AcDbEntity
  8
DEFAULT
100
AcDbVertex
100
AcDb2dVertex
 10
6.473059432662814
 20
6.634042810896672
 30
0.0
  0
VERTEX
  5
3AE
330
34E
100
AcDbEntity
  8
DEFAULT
100
AcDbVertex
100
AcDb2dVertex
 10
6.514847636648129
 20
6.595379778529728
 30
0.0
  0
VERTEX
  5
3AF
330
34E
100
AcDbEntity
  8
DEFAULT
100
AcDbVertex
100
AcDb2dVertex
 10
6.555634918610391
 20
6.555634918610413
 30
0.0
  0
VERTEX
  5
3B0
330
34E
100
AcDbEntity
  8
DEFAULT
100
AcDbVertex
100
AcDb2dVertex
 10
6.595379778529707
 20
6.514847636648152
 30
0.0
  0
VERTEX
  5
3B1
330
34E
100
AcDbEntity
  8
DEFAULT
100
AcDbVertex
100
AcDb2dVertex
 10
6.634042810896653
 20
6.473059432662835
 30
0.0
  0
VERTEX
  5
3B2
330
34E
100
AcDbEntity
  8
DEFAULT
100
AcDbVertex
100
AcDb2dVertex
 10
6.671586834810548
 20
6.430313760574248
 30
0.0
  0
VERTEX
  5
3B3
330
34E
100
AcDbEntity
  8
DEFAULT
100
AcDbVertex
100
AcDb2dVertex
 10
6.707977012664643
 20
6.386655878078314
 30
0.0
  0
VERTEX
  5
3B4
330
34E
100
AcDbEntity
  8
DEFAULT
100
AcDbVertex
100
AcDb2dVertex
 10
6.743180956626495
 20
6.342132688095599
 30
0.0
  0
VERTEX
  5
3B5
330
34E
100
AcDbEntity
  8
DEFAULT
100
AcDbVertex
100
AcDb2dVertex
 10
6.777168822239818
 20
6.296792572950172
 30
0.0
  0
VERTEX
  5
3B6
330
34E
100
AcDbEntity
  8
DEFAULT
100
AcDbVertex
100
AcDb2dVertex
 10
6.809913388599393
 20
6.250685222495513
 30
0.0
  0
VERTEX
  5
3B7
330
34E
100
AcDbEntity
  8
DEFAULT
100
AcDbVertex
100
AcDb2dVertex
 10
6.841390124681025
 20
6.203861457447321
 30
0.0
  0
VERTEX
  5
3B8
330
34E
100
AcDbEntity
  8
DEFAULT
100
AcDbVertex
100
AcDb2dVertex
 10
6.871577241542242
 20
6.156373049210817
 30
0.0
  0
VERTEX
  5
3B9
330
34E
100
AcDbEntity
  8
DEFAULT
100
AcDbVertex
100
AcDb2dVertex
 10
6.900455730244342
 20
6.108272537502139
 30
0.0
  0
VERTEX
  5
3BA
330
34E
100
AcDbEntity
  8
DEFAULT
100
AcDbVertex
100
AcDb2dVertex
 10
6.928009385480448
 20
6.059613047059775
 30
0.0
  0
VERTEX
  5
3BB
330
34E
100
AcDbEntity
  8
DEFAULT
100
AcDbVertex
100
AcDb2dVertex
 10
6.954224815025451
 20
6.010448104723213
 30
0.0
  0
VERTEX
  5
3BC
330
34E
100
AcDbEntity
  8
DEFAULT
100
AcDbVertex
100
AcDb2dVertex
 10
6.979091435250501
 20
5.960831458122652
 30
0.0
  0
VERTEX
  5
3BD
330
34E
100
AcDbEntity
  8
DEFAULT
100
AcDbVertex
100
AcDb2dVertex
 10
7.002601453064853
 20
5.910816897176667
 30
0.0
  0
VERTEX
  5
3BE
330
34E
100
AcDbEntity
  8
DEFAULT
100
AcDbVertex
100
AcDb2dVertex
 10
7.024749834760398
 20
5.860458079535394
 30
0.0
  0
VERTEX
  5
3BF
330
34E
100
AcDbEntity
  8
DEFAULT
100
AcDbVertex
100
AcDb2dVertex
 10
7.045534262337342
 20
5.809808361036125
 30
0.0
  0
VERTEX
  5
3C0
330
34E
100
AcDbEntity
  8
DEFAULT
100
AcDbVertex
100
AcDb2dVertex
 10
7.064955077982314
 20
5.758920632157971
 30
0.0
  0
VERTEX
  5
3C1
330
34E
100
AcDbEntity
  8
DEFAULT
100
AcDbVertex
100
AcDb2dVertex
 10
7.083015217451688
 20
5.707847161373619
 30
0.0
  0
VERTEX
  5
3C2
330
34E
100
AcDbEntity
  8
DEFAULT
100
AcDbVertex
100
AcDb2dVertex
 10
7.099720133182626
 20
5.656639446201286
 30
0.0
  0
VERTEX
  5
3C3
330
34E
100
AcDbEntity
  8
DEFAULT
100
AcDbVertex
100
AcDb2dVertex
 10
7.115077708011466
 20
5.605348072659817
 30
-0.0000000000000001
  0
VERTEX
  5
3C4
330
34E
100
AcDbEntity
  8
DEFAULT
100
AcDbVertex
100
AcDb2dVertex
 10
7.129098160423969
 20
5.554022583726752
 30
-0.0000000000000001
  0
VERTEX
  5
3C5
330
34E
100
AcDbEntity
  8
DEFAULT
100
AcDbVertex
100
AcDb2dVertex
 10
7.141793942294036
 20
5.502711357294186
 30
-0.0000000000000001
  0
VERTEX
  5
3C6
330
34E
100
AcDbEntity
  8
DEFAULT
100
AcDbVertex
100
AcDb2dVertex
 10
7.153179630087601
 20
5.451461494012304
 30
-0.0000000000000001
  0
VERTEX
  5
3C7
330
34E
100
AcDbEntity
  8
DEFAULT
100
AcDbVertex
100
AcDb2dVertex
 10
7.16327181051646
 20
5.400318715306722
 30
-0.0000000000000001
  0
VERTEX
  5
3C8
330
34E
100
AcDbEntity
  8
DEFAULT
100
AcDbVertex
100
AcDb2dVertex
 10
7.172088961623878
 20
5.349327271754862
 30
-0.0000000000000001
  0
VERTEX
  5
3C9
330
34E
100
AcDbEntity
  8
DEFAULT
100
AcDbVertex
100
AcDb2dVertex
 10
7.179651330270133
 20
5.298529861909372
 30
-0.0000000000000001
  0
VERTEX
  5
3CA
330
34E
100
AcDbEntity
  8
DEFAULT
100
AcDbVertex
100
AcDb2dVertex
 10
7.185980806963258
 20
5.247967561564511
 30
-0.0000000000000001
  0
VERTEX
  5
3CB
330
34E
100
AcDbEntity
  8
DEFAULT
100
AcDbVertex
100
AcDb2dVertex
 10
7.19110079894833
 20
5.197679763374953
 30
-0.0000000000000001
  0
VERTEX
  5
3CC
330
34E
100
AcDbEntity
  8
DEFAULT
100
AcDbVertex
100
AcDb2dVertex
 10
7.195036102429428
 20
5.147704126656692
 30
-0.0000000000000001
  0
VERTEX
  5
3CD
330
34E
100
AcDbEntity
  8
DEFAULT
100
AcDbVertex
100
AcDb2dVertex
 10
7.197812774752473
 20
5.098076537127048
 30
-0.0000000000000002
  0
VERTEX
  5
3CE
330
34E
100
AcDbEntity
  8
DEFAULT
100
AcDbVertex
100
AcDb2dVertex
 10
7.199458007325845
 20
5.048831076275532
 30
-0.0000000000000002
  0
VERTEX
  5
3CF
330
34E
100
AcDbEntity
  8
DEFAULT
100
AcDbVertex
100
AcDb2dVertex
 10
7.2
 20
4.999999999999999
 30
-0.0000000000000002
  0
SEQEND
  5
3D0
330
34E
100
AcDbEntity
  8
DEFAULT
  0
POLYLINE
  5
3D1
330
1F
100
AcDbEntity
  8
DEFAULT
100
AcDb2dPolyline
 66
     1
 10
0.0
 20
0.0
 30
-0.0000000000000002
  0
VERTEX
  5
3D2
330
3D1
100
AcDbEntity
  8
DEFAULT
100
AcDbVertex
100
AcDb2dVertex
 10
7.2
 20
4.999999999999999
 30
-0.0000000000000002
  0
VERTEX
  5
3D3
330
3D1
100
AcDbEntity
  8
DEFAULT
100
AcDbVertex
100
AcDb2dVertex
 10
7.199458007325845
 20
4.951168923724468
 30
-0.0000000000000002
  0
VERTEX
  5
3D4
330
3D1
100
AcDbEntity
  8
DEFAULT
100
AcDbVertex
100
AcDb2dVertex
 10
7.197812774752473
 20
4.901923462872952
 30
-0.0000000000000002
  0
VERTEX
  5
3D5
330
3D1
100
AcDbEntity
  8
DEFAULT
100
AcDbVertex
100
AcDb2dVertex
 10
7.195036102429428
 20
4.852295873343309
 30
-0.0000000000000001
  0
VERTEX
  5
3D6
330
3D1
100
AcDbEntity
  8
DEFAULT
100
AcDbVertex
100
AcDb2dVertex
 10
7.19110079894833
 20
4.802320236625049
 30
-0.0000000000000001
  0
VERTEX
  5
3D7
330
3D1
100
AcDbEntity
  8
DEFAULT
100
AcDbVertex
100
AcDb2dVertex
 10
7.185980806963258
 20
4.75203243843549
 30
-0.0000000000000001
  0
VERTEX
  5
3D8
330
3D1
100
AcDbEntity
  8
DEFAULT
100
AcDbVertex
100
AcDb2dVertex
 10
7.179651330270133
 20
4.70147013809063
 30
-0.0000000000000001
  0
VERTEX
  5
3D9
330
3D1
100
AcDbEntity
  8
DEFAULT
100
AcDbVertex
100
AcDb2dVertex
 10
7.172088961623878
 20
4.650672728245142
 30
-0.0000000000000001
  0
VERTEX
  5
3DA
330
3D1
100
AcDbEntity
  8
DEFAULT
100
AcDbVertex
100
AcDb2dVertex
 10
7.16327181051646
 20
4.599681284693279
 30
-0.0000000000000001
  0
VERTEX
  5
3DB
330
3D1
100
AcDbEntity
  8
DEFAULT
100
AcDbVertex
100
AcDb2dVertex
 10
7.153179630087601
 20
4.548538505987699
 30
-0.0000000000000001
  0
VERTEX
  5
3DC
330
3D1
100
AcDbEntity
  8
DEFAULT
100
AcDbVertex
100
AcDb2dVertex
 10
7.141793942294036
 20
4.497288642705816
 30
-0.0000000000000001
  0
VERTEX
  5
3DD
330
3D1
100
AcDbEntity
  8
DEFAULT
100
AcDbVertex
100
AcDb2dVertex
 10
7.129098160423969
 20
4.44597741627325
 30
-0.0000000000000001
  0
VERTEX
  5
3DE
330
3D1
100
AcDbEntity
  8
DEFAULT
100
AcDbVertex
100
AcDb2dVertex
 10
7.115077708011466
 20
4.394651927340183
 30
-0.0000000000000001
  0
VERTEX
  5
3DF
330
3D1
100
AcDbEntity
  8
DEFAULT
100
AcDbVertex
100
AcDb2dVertex
 10
7.099720133182626
 20
4.343360553798715
 30
0.0
  0
VERTEX
  5
3E0
330
3D1
100
AcDbEntity
  8
DEFAULT
100
AcDbVertex
100
AcDb2dVertex
 10
7.083015217451688
 20
4.292152838626382
 30
0.0
  0
VERTEX
  5
3E1
330
3D1
100
AcDbEntity
  8
DEFAULT
100
AcDbVertex
100
AcDb2dVertex
 10
7.064955077982314
 20
4.241079367842032
 30
0.0
  0
VERTEX
  5
3E2
330
3D1
100
AcDbEntity
  8
DEFAULT
100
AcDbVertex
100
AcDb2dVertex
 10
7.045534262337342
 20
4.190191638963875
 30
0.0
  0
VERTEX
  5
3E3
330
3D1
100
AcDbEntity
  8
DEFAULT
100
AcDbVertex
100
AcDb2dVertex
 10
7.024749834760398
 20
4.139541920464608
 30
0.0
  0
VERTEX
  5
3E4
330
3D1
100
AcDbEntity
  8
DEFAULT
100
AcDbVertex
100
AcDb2dVertex
 10
7.002601453064853
 20
4.089183102823333
 30
0.0
  0
VERTEX
  5
3E5
330
3D1
100
AcDbEntity
  8
DEFAULT
100
AcDbVertex
100
AcDb2dVertex
 10
6.9790914352505
 20
4.039168541877348
 30
0.0
  0
VERTEX
  5
3E6
330
3D1
100
AcDbEntity
  8
DEFAULT
100
AcDbVertex
100
AcDb2dVertex
 10
6.95422481502545
 20
3.989551895276786
 30
0.0
  0
VERTEX
  5
3E7
330
3D1
100
AcDbEntity
  8
DEFAULT
100
AcDbVertex
100
AcDb2dVertex
 10
6.928009385480446
 20
3.940386952940226
 30
0.0
  0
VERTEX
  5
3E8
330
3D1
100
AcDbEntity
  8
DEFAULT
100
AcDbVertex
100
AcDb2dVertex
 10
6.900455730244341
 20
3.89172746249786
 30
0.0
  0
VERTEX
  5
3E9
330
3D1
100
AcDbEntity
  8
DEFAULT
100
AcDbVertex
100
AcDb2dVertex
 10
6.871577241542241
 20
3.843626950789181
 30
0.0
  0
VERTEX
  5
3EA
330
3D1
100
AcDbEntity
  8
DEFAULT
100
AcDbVertex
100
AcDb2dVertex
 10
6.841390124681024
 20
3.796138542552678
 30
0.0
  0
VERTEX
  5
3EB
330
3D1
100
AcDbEntity
  8
DEFAULT
100
AcDbVertex
100
AcDb2dVertex
 10
6.809913388599393
 20
3.749314777504487
 30
0.0
  0
VERTEX
  5
3EC
330
3D1
100
AcDbEntity
  8
DEFAULT
100
AcDbVertex
100
AcDb2dVertex
 10
6.777168822239817
 20
3.703207427049827
 30
0.0
  0
VERTEX
  5
3ED
330
3D1
100
AcDbEntity
  8
DEFAULT
100
AcDbVertex
100
AcDb2dVertex
 10
6.743180956626495
 20
3.657867311904398
 30
0.0
  0
VERTEX
  5
3EE
330
3D1
100
AcDbEntity
  8
DEFAULT
100
AcDbVertex
100
AcDb2dVertex
 10
6.707977012664643
 20
3.613344121921682
 30
0.0
  0
VERTEX
  5
3EF
330
3D1
100
AcDbEntity
  8
DEFAULT
100
AcDbVertex
100
AcDb2dVertex
 10
6.671586834810548
 20
3.569686239425752
 30
0.0
  0
VERTEX
  5
3F0
330
3D1
100
AcDbEntity
  8
DEFAULT
100
AcDbVertex
100
AcDb2dVertex
 10
6.634042810896652
 20
3.526940567337162
 30
0.0
  0
VERTEX
  5
3F1
330
3D1
100
AcDbEntity
  8
DEFAULT
100
AcDbVertex
100
AcDb2dVertex
 10
6.595379778529706
 20
3.485152363351846
 30
0.0
  0
VERTEX
  5
3F2
330
3D1
100
AcDbEntity
  8
DEFAULT
100
AcDbVertex
100
AcDb2dVertex
 10
6.55563491861039
 20
3.444365081389584
 30
0.0
  0
VERTEX
  5
3F3
330
3D1
100
AcDbEntity
  8
DEFAULT
100
AcDbVertex
100
AcDb2dVertex
 10
6.514847636648129
 20
3.40462022147027
 30
0.0
  0
VERTEX
  5
3F4
330
3D1
100
AcDbEntity
  8
DEFAULT
100
AcDbVertex
100
AcDb2dVertex
 10
6.473059432662814
 20
3.365957189103326
 30
0.0
  0
VERTEX
  5
3F5
330
3D1
100
AcDbEntity
  8
DEFAULT
100
AcDbVertex
100
AcDb2dVertex
 10
6.430313760574225
 20
3.328413165189433
 30
0.0
  0
VERTEX
  5
3F6
330
3D1
100
AcDbEntity
  8
DEFAULT
100
AcDbVertex
100
AcDb2dVertex
 10
6.386655878078294
 20
3.292022987335336
 30
0.0
  0
VERTEX
  5
3F7
330
3D1
100
AcDbEntity
  8
DEFAULT
100
AcDbVertex
100
AcDb2dVertex
 10
6.342132688095579
 20
3.256819043373486
 30
0.0
  0
VERTEX
  5
3F8
330
3D1
100
AcDbEntity
  8
DEFAULT
100
AcDbVertex
100
AcDb2dVertex
 10
6.296792572950151
 20
3.222831177760165
 30
0.0
  0
VERTEX
  5
3F9
330
3D1
100
AcDbEntity
  8
DEFAULT
100
AcDbVertex
100
AcDb2dVertex
 10
6.250685222495492
 20
3.19008661140059
 30
0.0
  0
VERTEX
  5
3FA
330
3D1
100
AcDbEntity
  8
DEFAULT
100
AcDbVertex
100
AcDb2dVertex
 10
6.203861457447302
 20
3.15860987531896
 30
0.0
  0
VERTEX
  5
3FB
330
3D1
100
AcDbEntity
  8
DEFAULT
100
AcDbVertex
100
AcDb2dVertex
 10
6.1563730492108
 20
3.128422758457746
 30
0.0
  0
VERTEX
  5
3FC
330
3D1
100
AcDbEntity
  8
DEFAULT
100
AcDbVertex
100
AcDb2dVertex
 10
6.108272537502123
 20
3.099544269755645
 30
0.0
  0
VERTEX
  5
3FD
330
3D1
100
AcDbEntity
  8
DEFAULT
100
AcDbVertex
100
AcDb2dVertex
 10
6.059613047059758
 20
3.071990614519542
 30
0.0
  0
VERTEX
  5
3FE
330
3D1
100
AcDbEntity
  8
DEFAULT
100
AcDbVertex
100
AcDb2dVertex
 10
6.010448104723199
 20
3.04577518497454
 30
0.0
  0
VERTEX
  5
3FF
330
3D1
100
AcDbEntity
  8
DEFAULT
100
AcDbVertex
100
AcDb2dVertex
 10
5.960831458122639
 20
3.02090856474949
 30
0.0
  0
VERTEX
  5
400
330
3D1
100
AcDbEntity
  8
DEFAULT
100
AcDbVertex
100
AcDb2dVertex
 10
5.910816897176654
 20
2.997398546935139
 30
0.0
  0
VERTEX
  5
401
330
3D1
100
AcDbEntity
  8
DEFAULT
100
AcDbVertex
100
AcDb2dVertex
 10
5.860458079535381
 20
2.975250165239596
 30
0.0
  0
VERTEX
  5
402
330
3D1
100
AcDbEntity
  8
DEFAULT
100
AcDbVertex
100
AcDb2dVertex
 10
5.809808361036113
 20
2.95446573766265
 30
0.0
  0
VERTEX
  5
403
330
3D1
100
AcDbEntity
  8
DEFAULT
100
AcDbVertex
100
AcDb2dVertex
 10
5.75892063215796
 20
2.935044922017681
 30
0.0
  0
VERTEX
  5
404
330
3D1
100
AcDbEntity
  8
DEFAULT
100
AcDbVertex
100
AcDb2dVertex
 10
5.70784716137361
 20
2.916984782548307
 30
0.0
  0
VERTEX
  5
405
330
3D1
100
AcDbEntity
  8
DEFAULT
100
AcDbVertex
100
AcDb2dVertex
 10
5.656639446201277
 20
2.90027986681737
 30
0.0
  0
VERTEX
  5
406
330
3D1
100
AcDbEntity
  8
DEFAULT
100
AcDbVertex
100
AcDb2dVertex
 10
5.605348072659809
 20
2.884922291988529
 30
-0.0000000000000001
  0
VERTEX
  5
407
330
3D1
100
AcDbEntity
  8
DEFAULT
100
AcDbVertex
100
AcDb2dVertex
 10
5.554022583726743
 20
2.870901839576027
 30
-0.0000000000000001
  0
VERTEX
  5
408
330
3D1
100
AcDbEntity
  8
DEFAULT
100
AcDbVertex
100
AcDb2dVertex
 10
5.502711357294179
 20
2.85820605770596
 30
-0.0000000000000001
  0
VERTEX
  5
409
330
3D1
100
AcDbEntity
  8
DEFAULT
100
AcDbVertex
100
AcDb2dVertex
 10
5.451461494012297
 20
2.846820369912398
 30
-0.0000000000000001
  0
VERTEX
  5
40A
330
3D1
100
AcDbEntity
  8
DEFAULT
100
AcDbVertex
100
AcDb2dVertex
 10
5.400318715306716
 20
2.836728189483535
 30
-0.0000000000000001
  0
VERTEX
  5
40B
330
3D1
100
AcDbEntity
  8
DEFAULT
100
AcDbVertex
100
AcDb2dVertex
 10
5.349327271754857
 20
2.827911038376119
 30
-0.0000000000000001
  0
VERTEX
  5
40C
330
3D1
100
AcDbEntity
  8
DEFAULT
100
AcDbVertex
100
AcDb2dVertex
 10
5.298529861909369
 20
2.820348669729864
 30
-0.0000000000000001
  0
VERTEX
  5
40D
330
3D1
100
AcDbEntity
  8
DEFAULT
100
AcDbVertex
100
AcDb2dVertex
 10
5.24796756156451
 20
2.814019193036739
 30
-0.0000000000000001
  0
VERTEX
  5
40E
330
3D1
100
AcDbEntity
  8
DEFAULT
100
AcDbVertex
100
AcDb2dVertex
 10
5.19767976337495
 20
2.808899201051667
 30
-0.0000000000000001
  0
VERTEX
  5
40F
330
3D1
100
AcDbEntity
  8
DEFAULT
100
AcDbVertex
100
AcDb2dVertex
 10
5.147704126656691
 20
2.80496389757057
 30
-0.0000000000000001
  0
VERTEX
  5
410
330
3D1
100
AcDbEntity
  8
DEFAULT
100
AcDbVertex
100
AcDb2dVertex
 10
5.098076537127048
 20
2.802187225247527
 30
-0.0000000000000002
  0
VERTEX
  5
411
330
3D1
100
AcDbEntity
  8
DEFAULT
100
AcDbVertex
100
AcDb2dVertex
 10
5.048831076275534
 20
2.800541992674157
 30
-0.0000000000000002
  0
VERTEX
  5
412
330
3D1
100
AcDbEntity
  8
DEFAULT
100
AcDbVertex
100
AcDb2dVertex
 10
5.000000000000001
 20
2.8
 30
-0.0000000000000002
  0
VERTEX
  5
413
330
3D1
100
AcDbEntity
  8
DEFAULT
100
AcDbVertex
100
AcDb2dVertex
 10
4.951168923724469
 20
2.800541992674157
 30
-0.0000000000000002
  0
VERTEX
  5
414
330
3D1
100
AcDbEntity
  8
DEFAULT
100
AcDbVertex
100
AcDb2dVertex
 10
4.901923462872953
 20
2.802187225247527
 30
-0.0000000000000002
  0
VERTEX
  5
415
330
3D1
100
AcDbEntity
  8
DEFAULT
100
AcDbVertex
100
AcDb2dVertex
 10
4.852295873343309
 20
2.80496389757057
 30
-0.0000000000000001
  0
VERTEX
  5
416
330
3D1
100
AcDbEntity
  8
DEFAULT
100
AcDbVertex
100
AcDb2dVertex
 10
4.802320236625049
 20
2.808899201051668
 30
-0.0000000000000001
  0
VERTEX
  5
417
330
3D1
100
AcDbEntity
  8
DEFAULT
100
AcDbVertex
100
AcDb2dVertex
 10
4.75203243843549
 20
2.81401919303674
 30
-0.0000000000000001
  0
VERTEX
  5
418
330
3D1
100
AcDbEntity
  8
DEFAULT
100
AcDbVertex
100
AcDb2dVertex
 10
4.701470138090631
 20
2.820348669729865
 30
-0.0000000000000001
  0
VERTEX
  5
419
330
3D1
100
AcDbEntity
  8
DEFAULT
100
AcDbVertex
100
AcDb2dVertex
 10
4.650672728245143
 20
2.82791103837612
 30
-0.0000000000000001
  0
VERTEX
  5
41A
330
3D1
100
AcDbEntity
  8
DEFAULT
100
AcDbVertex
100
AcDb2dVertex
 10
4.599681284693281
 20
2.836728189483537
 30
-0.0000000000000001
  0
VERTEX
  5
41B
330
3D1
100
AcDbEntity
  8
DEFAULT
100
AcDbVertex
100
AcDb2dVertex
 10
4.548538505987701
 20
2.8468203699124
 30
-0.0000000000000001
  0
VERTEX
  5
41C
330
3D1
100
AcDbEntity
  8
DEFAULT
100
AcDbVertex
100
AcDb2dVertex
 10
4.497288642705819
 20
2.858206057705962
 30
-0.0000000000000001
  0
VERTEX
  5
41D
330
3D1
100
AcDbEntity
  8
DEFAULT
100
AcDbVertex
100
AcDb2dVertex
 10
4.445977416273253
 20
2.87090183957603
 30
-0.0000000000000001
  0
VERTEX
  5
41E
330
3D1
100
AcDbEntity
  8
DEFAULT
100
AcDbVertex
100
AcDb2dVertex
 10
4.394651927340186
 20
2.884922291988532
 30
-0.0000000000000001
  0
VERTEX
  5
41F
330
3D1
100
AcDbEntity
  8
DEFAULT
100
AcDbVertex
100
AcDb2dVertex
 10
4.343360553798719
 20
2.900279866817374
 30
0.0
  0
VERTEX
  5
420
330
3D1
100
AcDbEntity
  8
DEFAULT
100
AcDbVertex
100
AcDb2dVertex
 10
4.292152838626385
 20
2.91698478254831
 30
0.0
  0
VERTEX
  5
421
330
3D1
100
AcDbEntity
  8
DEFAULT
100
AcDbVertex
100
AcDb2dVertex
 10
4.241079367842035
 20
2.935044922017686
 30
0.0
  0
VERTEX
  5
422
330
3D1
100
AcDbEntity
  8
DEFAULT
100
AcDbVertex
100
AcDb2dVertex
 10
4.19019163896388
 20
2.954465737662655
 30
0.0
  0
VERTEX
  5
423
330
3D1
100
AcDbEntity
  8
DEFAULT
100
AcDbVertex
100
AcDb2dVertex
 10
4.139541920464612
 20
2.975250165239601
 30
0.0
  0
VERTEX
  5
424
330
3D1
100
AcDbEntity
  8
DEFAULT
100
AcDbVertex
100
AcDb2dVertex
 10
4.089183102823338
 20
2.997398546935145
 30
0.0
  0
VERTEX
  5
425
330
3D1
100
AcDbEntity
  8
DEFAULT
100
AcDbVertex
100
AcDb2dVertex
 10
4.039168541877353
 20
3.020908564749496
 30
0.0
  0
VERTEX
  5
426
330
3D1
100
AcDbEntity
  8
DEFAULT
100
AcDbVertex
100
AcDb2dVertex
 10
3.989551895276791
 20
3.045775184974546
 30
0.0
  0
VERTEX
  5
427
330
3D1
100
AcDbEntity
  8
DEFAULT
100
AcDbVertex
100
AcDb2dVertex
 10
3.940386952940231
 20
3.07199061451955
 30
0.0
  0
VERTEX
  5
428
330
3D1
100
AcDbEntity
  8
DEFAULT
100
AcDbVertex
100
AcDb2dVertex
 10
3.891727462497865
 20
3.099544269755654
 30
0.0
  0
VERTEX
  5
429
330
3D1
100
AcDbEntity
  8
DEFAULT
100
AcDbVertex
100
AcDb2dVertex
 10
3.843626950789186
 20
3.128422758457755
 30
0.0
  0
VERTEX
  5
42A
330
3D1
100
AcDbEntity
  8
DEFAULT
100
AcDbVertex
100
AcDb2dVertex
 10
3.796138542552683
 20
3.158609875318971
 30
0.0
  0
VERTEX
  5
42B
330
3D1
100
AcDbEntity
  8
DEFAULT
100
AcDbVertex
100
AcDb2dVertex
 10
3.749314777504492
 20
3.190086611400602
 30
0.0
  0
VERTEX
  5
42C
330
3D1
100
AcDbEntity
  8
DEFAULT
100
AcDbVertex
100
AcDb2dVertex
 10
3.703207427049833
 20
3.222831177760177
 30
0.0
  0
VERTEX
  5
42D
330
3D1
100
AcDbEntity
  8
DEFAULT
100
AcDbVertex
100
AcDb2dVertex
 10
3.657867311904404
 20
3.256819043373499
 30
0.0
  0
VERTEX
  5
42E
330
3D1
100
AcDbEntity
  8
DEFAULT
100
AcDbVertex
100
AcDb2dVertex
 10
3.613344121921688
 20
3.29202298733535
 30
0.0
  0
VERTEX
  5
42F
330
3D1
100
AcDbEntity
  8
DEFAULT
100
AcDbVertex
100
AcDb2dVertex
 10
3.569686239425758
 20
3.328413165189449
 30
0.0
  0
VERTEX
  5
430
330
3D1
100
AcDbEntity
  8
DEFAULT
100
AcDbVertex
100
AcDb2dVertex
 10
3.526940567337169
 20
3.365957189103343
 30
0.0
  0
VERTEX
  5
431
330
3D1
100
AcDbEntity
  8
DEFAULT
100
AcDbVertex
100
AcDb2dVertex
 10
3.485152363351852
 20
3.404620221470288
 30
0.0
  0
VERTEX
  5
432
330
3D1
100
AcDbEntity
  8
DEFAULT
100
AcDbVertex
100
AcDb2dVertex
 10
3.44436508138959
 20
3.444365081389604
 30
0.0
  0
VERTEX
  5
433
330
3D1
100
AcDbEntity
  8
DEFAULT
100
AcDbVertex
100
AcDb2dVertex
 10
3.404620221470275
 20
3.485152363351866
 30
0.0
  0
VERTEX
  5
434
330
3D1
100
AcDbEntity
  8
DEFAULT
100
AcDbVertex
100
AcDb2dVertex
 10
3.365957189103332
 20
3.526940567337182
 30
0.0
  0
VERTEX
  5
435
330
3D1
100
AcDbEntity
  8
DEFAULT
100
AcDbVertex
100
AcDb2dVertex
 10
3.328413165189438
 20
3.56968623942577
 30
0.0
  0
VERTEX
  5
436
330
3D1
100
AcDbEntity
  8
DEFAULT
100
AcDbVertex
100
AcDb2dVertex
 10
3.292022987335341
 20
3.6133441219217
 30
0.0
  0
VERTEX
  5
437
330
3D1
100
AcDbEntity
  8
DEFAULT
100
AcDbVertex
100
AcDb2dVertex
 10
3.256819043373491
 20
3.657867311904415
 30
0.0
  0
VERTEX
  5
438
330
3D1
100
AcDbEntity
  8
DEFAULT
100
AcDbVertex
100
AcDb2dVertex
 10
3.22283117776017
 20
3.703207427049843
 30
0.0
  0
VERTEX
  5
439
330
3D1
100
AcDbEntity
  8
DEFAULT
100
AcDbVertex
100
AcDb2dVertex
 10
3.190086611400595
 20
3.749314777504501
 30
0.0
  0
VERTEX
  5
43A
330
3D1
100
AcDbEntity
  8
DEFAULT
100
AcDbVertex
100
AcDb2dVertex
 10
3.158609875318964
 20
3.796138542552692
 30
0.0
  0
VERTEX
  5
43B
330
3D1
100
AcDbEntity
  8
DEFAULT
100
AcDbVertex
100
AcDb2dVertex
 10
3.12842275845775
 20
3.843626950789194
 30
0.0
  0
VERTEX
  5
43C
330
3D1
100
AcDbEntity
  8
DEFAULT
100
AcDbVertex
100
AcDb2dVertex
 10
3.099544269755649
 20
3.891727462497872
 30
0.0
  0
VERTEX
  5
43D
330
3D1
100
AcDbEntity
  8
DEFAULT
100
AcDbVertex
100
AcDb2dVertex
 10
3.071990614519546
 20
3.940386952940237
 30
0.0
  0
VERTEX
  5
43E
330
3D1
100
AcDbEntity
  8
DEFAULT
100
AcDbVertex
100
AcDb2dVertex
 10
3.045775184974543
 20
3.989551895276797
 30
0.0
  0
VERTEX
  5
43F
330
3D1
100
AcDbEntity
  8
DEFAULT
100
AcDbVertex
100
AcDb2dVertex
 10
3.020908564749494
 20
4.039168541877358
 30
0.0
  0
VERTEX
  5
440
330
3D1
100
AcDbEntity
  8
DEFAULT
100
AcDbVertex
100
AcDb2dVertex
 10
2.997398546935142
 20
4.089183102823342
 30
0.0
  0
VERTEX
  5
441
330
3D1
100
AcDbEntity
  8
DEFAULT
100
AcDbVertex
100
AcDb2dVertex
 10
2.975250165239599
 20
4.139541920464616
 30
0.0
  0
VERTEX
  5
442
330
3D1
100
AcDbEntity
  8
DEFAULT
100
AcDbVertex
100
AcDb2dVertex
 10
2.954465737662654
 20
4.190191638963881
 30
0.0
  0
VERTEX
  5
443
330
3D1
100
AcDbEntity
  8
DEFAULT
100
AcDbVertex
100
AcDb2dVertex
 10
2.935044922017684
 20
4.241079367842037
 30
0.0
  0
VERTEX
  5
444
330
3D1
100
AcDbEntity
  8
DEFAULT
100
AcDbVertex
100
AcDb2dVertex
 10
2.91698478254831
 20
4.292152838626388
 30
0.0
  0
VERTEX
  5
445
330
3D1
100
AcDbEntity
  8
DEFAULT
100
AcDbVertex
100
AcDb2dVertex
 10
2.900279866817373
 20
4.343360553798719
 30
0.0
  0
VERTEX
  5
446
330
3D1
100
AcDbEntity
  8
DEFAULT
100
AcDbVertex
100
AcDb2dVertex
 10
2.884922291988532
 20
4.394651927340187
 30
-0.0000000000000001
  0
VERTEX
  5
447
330
3D1
100
AcDbEntity
  8
DEFAULT
100
AcDbVertex
100
AcDb2dVertex
 10
2.87090183957603
 20
4.445977416273253
 30
-0.0000000000000001
  0
VERTEX
  5
448
330
3D1
100
AcDbEntity
  8
DEFAULT
100
AcDbVertex
100
AcDb2dVertex
 10
2.858206057705963
 20
4.497288642705819
 30
-0.0000000000000001
  0
VERTEX
  5
449
330
3D1
100
AcDbEntity
  8
DEFAULT
100
AcDbVertex
100
AcDb2dVertex
 10
2.8468203699124
 20
4.548538505987701
 30
-0.0000000000000001
  0
VERTEX
  5
44A
330
3D1
100
AcDbEntity
  8
DEFAULT
100
AcDbVertex
100
AcDb2dVertex
 10
2.836728189483538
 20
4.599681284693281
 30
-0.0000000000000001
  0
VERTEX
  5
44B
330
3D1
100
AcDbEntity
  8
DEFAULT
100
AcDbVertex
100
AcDb2dVertex
 10
2.827911038376121
 20
4.650672728245142
 30
-0.0000000000000001
  0
VERTEX
  5
44C
330
3D1
100
AcDbEntity
  8
DEFAULT
100
AcDbVertex
100
AcDb2dVertex
 10
2.820348669729866
 20
4.70147013809063
 30
-0.0000000000000001
  0
VERTEX
  5
44D
330
3D1
100
AcDbEntity
  8
DEFAULT
100
AcDbVertex
100
AcDb2dVertex
 10
2.814019193036741
 20
4.75203243843549
 30
-0.0000000000000001
  0
VERTEX
  5
44E
330
3D1
100
AcDbEntity
  8
DEFAULT
100
AcDbVertex
100
AcDb2dVertex
 10
2.808899201051668
 20
4.802320236625047
 30
-0.0000000000000001
  0
VERTEX
  5
44F
330
3D1
100
AcDbEntity
  8
DEFAULT
100
AcDbVertex
100
AcDb2dVertex
 10
2.804963897570572
 20
4.852295873343309
 30
-0.0000000000000001
  0
VERTEX
  5
450
330
3D1
100
AcDbEntity
  8
DEFAULT
100
AcDbVertex
100
AcDb2dVertex
 10
2.802187225247528
 20
4.901923462872952
 30
-0.0000000000000002
  0
VERTEX
  5
451
330
3D1
100
AcDbEntity
  8
DEFAULT
100
AcDbVertex
100
AcDb2dVertex
 10
2.800541992674158
 20
4.951168923724468
 30
-0.0000000000000002
  0
VERTEX
  5
452
330
3D1
100
AcDbEntity
  8
DEFAULT
100
AcDbVertex
100
AcDb2dVertex
 10
2.800000000000002
 20
4.999999999999999
 30
-0.0000000000000002
  0
SEQEND
  5
453
330
3D1
100
AcDbEntity
  8
DEFAULT
  0
POLYLINE
  5
454
330
1F
100
AcDbEntity
  8
DEFAULT
100
AcDb2dPolyline
 66
     1
 10
0.0
 20
0.0
 30
0.0
  0
VERTEX
  5
455
330
454
100
AcDbEntity
  8
DEFAULT
100
AcDbVertex
100
AcDb2dVertex
 10
0.0
 20
40.0
 30
0.0
  0
VERTEX
  5
456
330
454
100
AcDbEntity
  8
DEFAULT
100
AcDbVertex
100
AcDb2dVertex
 10
0.0
 20
0.0
 30
0.0
  0
SEQEND
  5
457
330
454
100
AcDbEntity
  8
DEFAULT
  0
POLYLINE
  5
458
330
1F
100
AcDbEntity
  8
DEFAULT
100
AcDb2dPolyline
 66
     1
 10
0.0
 20
0.0
 30
0.0
  0
VERTEX
  5
459
330
458
100
AcDbEntity
  8
DEFAULT
100
AcDbVertex
100
AcDb2dVertex
 10
0.0
 20
0.0
 30
0.0
  0
VERTEX
  5
45A
330
458
100
AcDbEntity
  8
DEFAULT
100
AcDbVertex
100
AcDb2dVertex
 10
100.0
 20
0.0
 30
0.0
  0
SEQEND
  5
45B
330
458
100
AcDbEntity
  8
DEFAULT
  0
POLYLINE
  5
45C
330
1F
100
AcDbEntity
  8
DEFAULT
100
AcDb2dPolyline
 66
     1
 10
0.0
 20
0.0
 30
0.0
  0
VERTEX
  5
45D
330
45C
100
AcDbEntity
  8
DEFAULT
100
AcDbVertex
100
AcDb2dVertex
 10
100.0
 20
0.0
 30
0.0
  0
VERTEX
  5
45E
330
45C
100
AcDbEntity
  8
DEFAULT
100
AcDbVertex
100
AcDb2dVertex
 10
100.0
 20
40.0
 30
0.0
  0
SEQEND
  5
45F
330
45C
100
AcDbEntity
  8
DEFAULT
  0
POLYLINE
  5
460
330
1F
100
AcDbEntity
  8
DEFAULT
100
AcDb2dPolyline
 66
     1
 10
0.0
 20
0.0
 30
0.0
  0
VERTEX
  5
461
330
460
100
AcDbEntity
  8
DEFAULT
100
AcDbVertex
100
AcDb2dVertex
 10
100.0
 20
40.0
 30
0.0
  0
VERTEX
  5
462
330
460
100
AcDbEntity
  8
DEFAULT
100
AcDbVertex
100
AcDb2dVertex
 10
0.0
 20
40.0
 30
0.0
  0
SEQEND
  5
463
330
460
100
AcDbEntity
  8
DEFAULT
  0
ENDSEC
  0
SECTION
  2
OBJECTS
  0
DICTIONARY
  5
C
330
0
100
AcDbDictionary
281
     1
  3
ACAD_GROUP
350
D
  3
ACAD_LAYOUT
350
1A
  3
ACAD_MLEADERSTYLE
350
465
  3
ACAD_MLINESTYLE
350
17
  3
ACAD_PLOTSETTINGS
350
19
  3
ACAD_PLOTSTYLENAME
350
E
  3
ACAD_TABLESTYLE
350
464
  3
ACAD_VISUALSTYLE
350
2A
  0
DICTIONARY
  5
D
102
{ACAD_REACTORS
330
C
102
}
330
C
100
AcDbDictionary
281
     1
  0
DICTIONARY
  5
1A
102
{ACAD_REACTORS
330
C
102
}
330
C
100
AcDbDictionary
281
     1
  3
Layout1
350
1E
  3
Layout2
350
26
  3
Model
350
22
  0
DICTIONARY
  5
465
102
{ACAD_REACTORS
330
C
102
}
330
C
100
AcDbDictionary
281
     1
  0
DICTIONARY
  5
17
102
{ACAD_REACTORS
330
C
102
}
330
C
100
AcDbDictionary
281
     1
  3
Standard
350
18
  0
DICTIONARY
  5
19
102
{ACAD_REACTORS
330
C
102
}
330
C
100
AcDbDictionary
281
     1
  0
ACDBDICTIONARYWDFLT
  5
E
102
{ACAD_REACTORS
330
C
102
}
330
C
100
AcDbDictionary
281
     1
  3
Normal
350
F
100
AcDbDictionaryWithDefault
340
F
  0
DICTIONARY
  5
464
102
{ACAD_REACTORS
330
C
102
}
330
C
100
AcDbDictionary
281
     1
  0
DICTIONARY
  5
2A
102
{ACAD_REACTORS
330
C
102
}
330
C
100
AcDbDictionary
281
     1
  3
2dWireframe
350
2F
  3
3D Hidden
350
31
  3
3dWireframe
350
30
  3
Basic
350
32
  3
Brighten
350
36
  3
ColorChange
350
3A
  3
Conceptual
350
34
  3
Dim
350
35
  3
Facepattern
350
39
  3
Flat
350
2B
  3
FlatWithEdges
350
2C
  3
Gouraud
350
2D
  3
GouraudWithEdges
350
2E
  3
Linepattern
350
38
  3
Realistic
350
33
  3
Thicken
350
37
  0
LAYOUT
  5
1E
102
{ACAD_REACTORS
330
1A
102
}
330
1A
100
AcDbPlotSettings
  1

  2
none_device
  4

  6

 40
0.0
 41
0.0
 42
0.0
 43
0.0
 44
0.0
 45
0.0
 46
0.0
 47
0.0
 48
0.0
 49
0.0
140
0.0
141
0.0
142
1.0
143
1.0
 70
   688
 72
     0
 73
     0
 74
     5
  7

 75
    16
 76
     0
 77
     2
 78
   300
147
1.0
148
0.0
149
0.0
100
AcDbLayout
  1
Layout1
 70
     1
 71
     1
 10
0.0
 20
0.0
 11
12.0
 21
9.0
 12
0.0
 22
0.0
 32
0.0
 14
1.000000000000000E+20
 24
1.000000000000000E+20
 34
1.000000000000000E+20
 15
-1.000000000000000E+20
 25
-1.000000000000000E+20
 35
-1.000000000000000E+20
146
0.0
 13
0.0
 23
0.0
 33
0.0
 16
1.0
 26
0.0
 36
0.0
 17
0.0
 27
1.0
 37
0.0
 76
     0
330
1B
  0
LAYOUT
  5
26
102
{ACAD_REACTORS
330
1A
102
}
330
1A
100
AcDbPlotSettings
  1

  2
none_device
  4

  6

 40
0.0
 41
0.0
 42
0.0
 43
0.0
 44
0.0
 45
0.0
 46
0.0
 47
0.0
 48
0.0
 49
0.0
140
0.0
141
0.0
142
1.0
143
1.0
 70
   688
 72
     0
 73
     0
 74
     5
  7

 75
    16
 76
     0
 77
     2
 78
   300
147
1.0
148
0.0
149
0.0
100
AcDbLayout
  1
Layout2
 70
     1
 71
     2
 10
0.0
 20
0.0
 11
0.0
 21
0.0
 12
0.0
 22
0.0
 32
0.0
 14
0.0
 24
0.0
 34
0.0
 15
0.0
 25
0.0
 35
0.0
146
0.0
 13
0.0
 23
0.0
 33
0.0
 16
1.0
 26
0.0
 36
0.0
 17
0.0
 27
1.0
 37
0.0
 76
     0
330
23
  0
LAYOUT
  5
22
102
{ACAD_REACTORS
330
1A
102
}
330
1A
100
AcDbPlotSettings
  1

  2
none_device
  4

  6

 40
0.0
 41
0.0
 42
0.0
 43
0.0
 44
0.0
 45
0.0
 46
0.0
 47
0.0
 48
0.0
 49
0.0
140
0.0
141
0.0
142
1.0
143
1.0
 70
  1712
 72
     0
 73
     0
 74
     0
  7

 75
     0
 76
     0
 77
     2
 78
   300
147
1.0
148
0.0
149
0.0
100
AcDbLayout
  1
Model
 70
     1
 71
     0
 10
0.0
 20
0.0
 11
12.0
 21
9.0
 12
0.0
 22
0.0
 32
0.0
 14
0.0
 24
0.0
 34
-0.0000000000000002
 15
100.0
 25
40.0
 35
0.0
146
0.0
 13
0.0
 23
0.0
 33
0.0
 16
1.0
 26
0.0
 36
0.0
 17
0.0
 27
1.0
 37
0.0
 76
     0
330
1F
331
29
  0
MLINESTYLE
  5
18
102
{ACAD_REACTORS
330
17
102
}
330
17
100
AcDbMlineStyle
  2
Standard
 70
     0
  3

 62
   256
 51
90.0
 52
90.0
 71
     2
 49
0.5
 62
   256
  6
BYLAYER
 49
-0.5
 62
   256
  6
BYLAYER
  0
ACDBPLACEHOLDER
  5
F
102
{ACAD_REACTORS
330
E
102
}
330
E
  0
VISUALSTYLE
  5
2F
102
{ACAD_REACTORS
330
2A
102
}
330
2A
100
AcDbVisualStyle
  2
2dWireframe
 70
     4
 71
     0
 72
     2
 73
     0
 90
        0
 40
-0.6
 41
-30.0
 62
     5
 63
     7
421
 16777215
 74
     1
 91
        4
 64
     7
 65
   257
 75
     1
175
     1
 42
1.0
 92
        0
 66
   257
 43
1.0
 76
     1
 77
     6
 78
     2
 67
     7
 79
     5
170
     0
171
     0
290
     0
174
     0
 93
        1
 44
0.0
173
     0
291
     0
 45
0.0
1001
ACAD
1000
AcDbSavedByObjectVersion
1070
     0
  0
VISUALSTYLE
  5
31
102
{ACAD_REACTORS
330
2A
102
}
330
2A
100
AcDbVisualStyle
  2
3D Hidden
 70
     6
 71
     1
 72
     2
 73
     2
 90
        0
 40
-0.6
 41
-30.0
 62
     5
 63
     7
421
 16777215
 74
     2
 91
        2
 64
     7
 65
   257
 75
     2
175
     1
 42
40.0
 92
        0
 66
   257
 43
1.0
 76
     1
 77
     6
 78
     2
 67
     7
 79
     3
170
     0
171
     0
290
     0
174
     0
 93
        1
 44
0.0
173
     0
291
     0
 45
0.0
1001
ACAD
1000
AcDbSavedByObjectVersion
1070
     0
  0
VISUALSTYLE
  5
30
102
{ACAD_REACTORS
330
2A
102
}
330
2A
100
AcDbVisualStyle
  2
3dWireframe
 70
     5
 71
     0
 72
     2
 73
     0
 90
        0
 40
-0.6
 41
-30.0
 62
     5
 63
     7
421
 16777215
 74
     1
 91
        4
 64
     7
 65
   257
 75
     1
175
     1
 42
1.0
 92
        0
 66
   257
 43
1.0
 76
     1
 77
     6
 78
     2
 67
     7
 79
     5
170
     0
171
     0
290
     0
174
     0
 93
        1
 44
0.0
173
     0
291
     0
 45
0.0
1001
ACAD
1000
AcDbSavedByObjectVersion
1070
     0
  0
VISUALSTYLE
  5
32
102
{ACAD_REACTORS
330
2A
102
}
330
2A
100
AcDbVisualStyle
  2
Basic
 70
     7
 71
     1
 72
     0
 73
     1
 90
        0
 40
-0.6
 41
-30.0
 62
     5
 63
     7
421
 16777215
 74
     0
 91
        4
 64
     7
 65
   257
 75
     1
175
     1
 42
1.0
 92
        8
 66
     7
 43
1.0
 76
     1
 77
     6
 78
     2
 67
     7
 79
     5
170
     0
171
     0
290
     0
174
     0
 93
        1
 44
0.0
173
     0
291
     1
 45
0.0
1001
ACAD
1000
AcDbSavedByObjectVersion
1070
     0
  0
VISUALSTYLE
  5
36
102
{ACAD_REACTORS
330
2A
102
}
330
2A
100
AcDbVisualStyle
  2
Brighten
 70
    12
 71
     2
 72
     2
 73
     0
 90
        0
 40
-0.6
 41
-30.0
 62
     5
 63
     7
421
 16777215
 74
     1
 91
        4
 64
     7
 65
   257
 75
     1
175
     1
 42
1.0
 92
        8
 66
     7
 43
1.0
 76
     1
 77
     6
 78
     2
 67
     7
 79
     5
170
     0
171
     0
290
     0
174
     0
 93
        1
 44
50.0
173
     0
291
     1
 45
0.0
1001
ACAD
1000
AcDbSavedByObjectVersion
1070
     0
  0
VISUALSTYLE
  5
3A
102
{ACAD_REACTORS
330
2A
102
}
330
2A
100
AcDbVisualStyle
  2
ColorChange
 70
    16
 71
     2
 72
     2
 73
     3
 90
        0
 40
-0.6
 41
-30.0
 62
     5
 63
     8
421
  8421504
 74
     1
 91
        4
 64
     7
 65
   257
 75
     1
175
     1
 42
1.0
 92
        8
 66
     8
424
  8421504
 43
1.0
 76
     1
 77
     6
 78
     2
 67
     7
 79
     5
170
     0
171
     0
290
     0
174
     0
 93
        1
 44
0.0
173
     0
291
     1
 45
0.0
1001
ACAD
1000
AcDbSavedByObjectVersion
1070
     0
  0
VISUALSTYLE
  5
34
102
{ACAD_REACTORS
330
2A
102
}
330
2A
100
AcDbVisualStyle
  2
Conceptual
 70
     9
 71
     3
 72
     2
 73
     0
 90
        0
 40
-0.6
 41
-30.0
 62
     5
 63
     7
421
 16777215
 74
     2
 91
        2
 64
     7
 65
   257
 75
     1
175
     1
 42
40.0
 92
        8
 66
     7
 43
1.0
 76
     1
 77
     6
 78
     2
 67
     7
 79
     3
170
     0
171
     0
290
     0
174
     0
 93
        1
 44
0.0
173
     0
291
     0
 45
0.0
1001
ACAD
1000
AcDbSavedByObjectVersion
1070
     0
  0
VISUALSTYLE
  5
35
102
{ACAD_REACTORS
330
2A
102
}
330
2A
100
AcDbVisualStyle
  2
Dim
 70
    11
 71
     2
 72
     2
 73
     0
 90
        0
 40
-0.6
 41
-30.0
 62
     5
 63
     7
421
 16777215
 74
     1
 91
        4
 64
     7
 65
   257
 75
     1
175
     1
 42
1.0
 92
        8
 66
     7
 43
1.0
 76
     1
 77
     6
 78
     2
 67
     7
 79
     5
170
     0
171
     0
290
     0
174
     0
 93
        1
 44
-50.0
173
     0
291
     1
 45
0.0
1001
ACAD
1000
AcDbSavedByObjectVersion
1070
     0
  0
VISUALSTYLE
  5
39
102
{ACAD_REACTORS
330
2A
102
}
330
2A
100
AcDbVisualStyle
  2
Facepattern
 70
    15
 71
     2
 72
     2
 73
     0
 90
        0
 40
-0.6
 41
-30.0
 62
     5
 63
     7
421
 16777215
 74
     1
 91
        4
 64
     7
 65
   257
 75
     1
175
     1
 42
1.0
 92
        8
 66
     7
 43
1.0
 76
     1
 77
     6
 78
     2
 67
     7
 79
     5
170
     0
171
     0
290
     0
174
     0
 93
        1
 44
0.0
173
     0
291
     1
 45
0.0
1001
ACAD
1000
AcDbSavedByObjectVersion
1070
     0
  0
VISUALSTYLE
  5
2B
102
{ACAD_REACTORS
330
2A
102
}
330
2A
100
AcDbVisualStyle
  2
Flat
 70
     0
 71
     2
 72
     1
 73
     1
 90
        2
 40
-0.6
 41
30.0
 62
     5
 63
     7
421
 16777215
 74
     0
 91
        4
 64
     7
 65
   257
 75
     1
175
     1
 42
1.0
 92
        8
 66
     7
 43
1.0
 76
     1
 77
     6
 78
     2
 67
     7
 79
     5
170
     0
171
     0
290
     0
174
     0
 93
       13
 44
0.0
173
     0
291
     1
 45
0.0
1001
ACAD
1000
AcDbSavedByObjectVersion
1070
     0
  0
VISUALSTYLE
  5
2C
102
{ACAD_REACTORS
330
2A
102
}
330
2A
100
AcDbVisualStyle
  2
FlatWithEdges
 70
     1
 71
     2
 72
     1
 73
     1
 90
        2
 40
-0.6
 41
30.0
 62
     5
 63
     7
421
 16777215
 74
     1
 91
        4
 64
     7
 65
   257
 75
     1
175
     1
 42
1.0
 92
        0
 66
   257
 43
1.0
 76
     1
 77
     6
 78
     2
 67
     7
 79
     5
170
     0
171
     0
290
     0
174
     0
 93
       13
 44
0.0
173
     0
291
     1
 45
0.0
1001
ACAD
1000
AcDbSavedByObjectVersion
1070
     0
  0
VISUALSTYLE
  5
2D
102
{ACAD_REACTORS
330
2A
102
}
330
2A
100
AcDbVisualStyle
  2
Gouraud
 70
     2
 71
     2
 72
     2
 73
     1
 90
        2
 40
-0.6
 41
30.0
 62
     5
 63
     7
421
 16777215
 74
     0
 91
        4
 64
     7
 65
   257
 75
     1
175
     1
 42
1.0
 92
        0
 66
     7
 43
1.0
 76
     1
 77
     6
 78
     2
 67
     7
 79
     5
170
     0
171
     0
290
     0
174
     0
 93
       13
 44
0.0
173
     0
291
     1
 45
0.0
1001
ACAD
1000
AcDbSavedByObjectVersion
1070
     0
  0
VISUALSTYLE
  5
2E
102
{ACAD_REACTORS
330
2A
102
}
330
2A
100
AcDbVisualStyle
  2
GouraudWithEdges
 70
     3
 71
     2
 72
     2
 73
     1
 90
        2
 40
-0.6
 41
30.0
 62
     5
 63
     7
421
 16777215
 74
     1
 91
        4
 64
     7
 65
   257
 75
     1
175
     1
 42
1.0
 92
        0
 66
   257
 43
1.0
 76
     1
 77
     6
 78
     2
 67
     7
 79
     5
170
     0
171
     0
290
     0
174
     0
 93
       13
 44
0.0
173
     0
291
     1
 45
0.0
1001
ACAD
1000
AcDbSavedByObjectVersion
1070
     0
  0
VISUALSTYLE
  5
38
102
{ACAD_REACTORS
330
2A
102
}
330
2A
100
AcDbVisualStyle
  2
Linepattern
 70
    14
 71
     2
 72
     2
 73
     0
 90
        0
 40
-0.6
 41
-30.0
 62
     5
 63
     7
421
 16777215
 74
     1
 91
        4
 64
     7
 65
   257
 75
     7
175
     7
 42
1.0
 92
        8
 66
     7
 43
1.0
 76
     1
 77
     6
 78
     2
 67
     7
 79
     5
170
     0
171
     0
290
     0
174
     0
 93
        1
 44
0.0
173
     0
291
     1
 45
0.0
1001
ACAD
1000
AcDbSavedByObjectVersion
1070
     0
  0
VISUALSTYLE
  5
33
102
{ACAD_REACTORS
330
2A
102
}
330
2A
100
AcDbVisualStyle
  2
Realistic
 70
     8
 71
     2
 72
     2
 73
     0
 90
        0
 40
-0.6
 41
-30.0
 62
     5
 63
     7
421
 16777215
 74
     1
 91
        0
 64
     7
 65
   257
 75
     1
175
     1
 42
1.0
 92
        8
 66
     8
424
  7895160
 43
1.0
 76
     1
 77
     6
 78
     2
 67
     7
 79
     5
170
     0
171
     0
290
     0
174
     0
 93
       13
 44
0.0
173
     0
291
     0
 45
0.0
1001
ACAD
1000
AcDbSavedByObjectVersion
1070
     0
  0
VISUALSTYLE
  5
37
102
{ACAD_REACTORS
330
2A
102
}
330
2A
100
AcDbVisualStyle
  2
Thicken
 70
    13
 71
     2
 72
     2
 73
     0
 90
        0
 40
-0.6
 41
-30.0
 62
     5
 63
     7
421
 16777215
 74
     1
 91
        4
 64
     7
 65
   257
 75
     1
175
     1
 42
1.0
 92
       12
 66
     7
 43
1.0
 76
     1
 77
     6
 78
     2
 67
     7
 79
     5
170
     0
171
     0
290
     0
174
     0
 93
        1
 44
0.0
173
     0
291
     1
 45
0.0
1001
ACAD
1000
AcDbSavedByObjectVersion
1070
     0
  0
ENDSEC
  0
EOF
